Strait Up - Angels Son Chords & Tabs

 

Angels Son Chords & Tabs

Strait Up Chords & Tabs

Version: 7 Type: Tab 0 ratings
1 star 2 stars 3 stars 4 stars 5 stars
comments

Angels Son Tab

This is only the intro of "angel's son", because i need some help to
figure out the rest of the song.
This is an excellent song, featuring the voice from Sevendust, Laijo
[ Tab from: http://www.guitartabs.cc/tabs/s/strait_up/angels_son_tab_ver_7.html ]
Intro:
e---------------------------------------------------------------------------|
b---------------------------------------------------------------------------|
g---------5---------------5---------------5---------------5-----------------|
d-----0-------0-------0-------0-------0-------0-------0-------0-------------|
a-3---------------3---------------------------------------------------------|
E---------------------------------3---------------4-------------------------|

e----------------------------------------------------------------------------|
b----------------------------------------------------------------------------|
g-5-------5----------5----hold-----------------------------------------------|
d-----0-------0------0----hold-----------------------------------------------|
a----------------------------------------------------------------------------|
E--------------------4----hold-----------------------------------------------|

That's all i know of the song, any enquiries contact me at
mpdeuble@bigpond.com, or if you have figured out the rest of the
song that would be much appreciated.

Thanks!!
Comments