Straight Faced - Against Chords & Tabs

 

Against Chords & Tabs

Straight Faced Chords & Tabs

Version: 2 Type: Bass Tab 0 ratings
1 star 2 stars 3 stars 4 stars 5 stars
comments

Against Bass Tab

Song:against
Band:straight faced
Album:conditioned
tabbed by:jason

                intro/chours
G:---------------------------------------------------------------
D:---------------------------------------------------------------
A:-------------3-3-3-3-3-5-3-3-3-3-3-3-2--------------------------
E:-0-0-0-0-0-5---------------------------5-5-5-5-5-5-4-0-0-0-0-0-0-
[ Tab from: http://www.guitartabs.cc/tabs/s/straight_faced/against_btab_ver_2.html ]
                verse
G:-------------------------
D:-------------------------  and so on  and thats al i know
A:----0--------0---------0-
E:5-5--5-5-5-5---5-5-5-5---

G:---------------------------------------------------------------
D:---------------------------------------------------------------
A:---------------------------------------------------------------
E:---------------------------------------------------------------

Comments