Story Of The Year - Until The Day I Die Chords & Tabs

 

Until The Day I Die Chords & Tabs

Story Of The Year Chords & Tabs

Version: 9 Type: Tab 0 ratings
1 star 2 stars 3 stars 4 stars 5 stars
comments

Until The Day I Die Tab

   
#----------------------------------PLEASE NOTE---------------------------------#
#This file is the author's own work and represents their interpretation of the #
#song. You may only use this file for private study, scholarship, or research. #
#------------------------------------------------------------------------------##

                               UNTIL THE DAY I DIE
                        As recorded by Story Of The Year
                        (From the 2003 Album PAGE AVENUE)

Transcribed by PunKKiD182

         D5/A
     x x x x 10 10

Gtr I (D A D G B E) - 'Clean'
Gtr II (D A D G B E) - 'Distortion'
Gtr III (D A D G B E) - 'Distortion'
Gtr IV (D A D G B E) - 'Overdrive'
Gtr V (E A D G B E) - 'Clean'
Gtr VI (E A D G B E) - 'synth'

   Intro
    Q=184
    N.C.
   4/4
    Gtr IV
    PM----------------------------------------|
    E E E E  E E   E  E    E  E E E  E E   E  E
||----------------------|------------------------||
||o---------10---(10)---|-----------10---(10)---o||
||----7---7----7------7-|-----7---7----7------7--||
||--9---9----------9----|-(9)---9----------9-----||
||o---------------------|-----------------------o||
||----------------------|------------------------||


    G5                    A5
    PM----------------------------------------|
    E E E E  E E   E  E    E  E E E  E E   E  E
||----------------------|-----------------------|
||o---------10---(10)---|-----------10---(10)---|
||----7---7----7------7-|-----7---7----7------7-|
||--9---9----------9----|-(9)---9----------9----|
||o---------------------|-----------------------|
||----------------------|-----------------------|
|
|   Gtr I
|   H        Q     Q       H         Q     Q
||-----------5-----5----|-----------------------|
||o----------8-----8----|-----------10----10----|
||-----------7-----7----|------------9-----9----|
||--5--------5-----5/---|--7---------7-----7/---|
||o-5--------5-----5/---|--7---------7-----7/---|
||--5--------5-----5/---|--7---------7-----7/---|


  B5
  PM------------------------------------------|
  E E E E  E E   E   E    E   E E E  E E   E   E  3x
|----------------------|--------------------------||
|---------10---(10)----|------------10---(10)----o||
|---7---7----7-------7-|------7---7----7-------7--||
|-9---9----------9-----|-(9)----9----------9------||
|----------------------|-------------------------o||
|----------------------|--------------------------||
|
| Q   Q    Q     E   E    E   E Q    Q     E   E  3x
|----------------------|--------------------------||
|---------10--------10-|-----10-----10--------10-o||
|---------11--------11-|-----11-----11--------11--||
|-9---9----9-----9---9-|--9---9-9----9-----9---9--||
|-9---9----9-----9---9-|--9---9-9----9-----9---9-o||
|-9---9----9-----9---9-|--9---9-9----9-----9---9--||


  G5                    A5
  PM----------------------------------------|
  E E E E  E E   E  E    E  E E E  E E   E  E
|---------------------|-----------------------||
|---------10---(10)---|-----------10---(10)---||
|---7---7----7------7-|-----7---7----7------7-||
|-9---9----------9----|-(9)---9----------9----||
|---------------------|-----------------------||
|---------------------|-----------------------||
|
| H        Q     Q       H         Q     Q
|----------5-----5----|-----------------------||
|----------8-----8----|-----------10----10----||
|----------7-----7----|------------9-----9----||
|-5--------5-----5/---|--7---------7-----7/---||
|-5--------5-----5/---|--7---------7-----7/---||
|-5--------5-----5/---|--7---------7-----7/---||


  B5
  Gtrs II, III
   E  E  q   E  E  q     E  E  q   E  E  E E
|---------------------|----------------------|
|---------------------|----------------------|
|---------------------|----------------------|
|--9--9--9---9--9--9--|-----9--9---9--9--9---|
|--9--9--9---9--9--9--|-----9--9---9--9--9-0-|
|--9--9--9---9--9--9--|-----9--9---9--9--9-0-|
|
| Gtr IV
|  E  E  q   E  E  q     E  E  q   E  E  q
|---------------------|----------------------|
|-15-15-15--15-15-15--|-14-14-14--14-14-14---|
|-14-14-14--14-14-14--|-14-14-14--14-14-14---|
|-12-12-12--12-12-12--|-12-12-12--12-12-12---|
|---------------------|----------------------|
|---------------------|----------------------|


  G5                              A5
   E  E  q   E  E  q     E  E  q   E  E  E E
|---------------------|----------------------|
|---------------------|----------------------|
|---------------------|----------------------|
|--5--5--5---5--5--5--|-----5--5---7--7--7-7-|
|--5--5--5---5--5--5--|-----5--5---7--7--7-7-|
|--5--5--5---5--5--5--|-----5--5---7--7--7-7-|
|
|  E  E  q   E  E  q     E  E  q   E  E  q
|---------------------|----------------------|
|---------------------|----------------------|
|-14-14-14--14-14-14--|-14-14-14--14-14-14---|
|-12-12-12--12-12-12--|-12-12-12--12-12-12---|
|-12-12-12--12-12-12--|-12-12-12--12-12-12---|
|---------------------|----------------------|


  B5
   E  E  q   E  E  q     E  E  q   E  E  E E
|---------------------|----------------------|
|---------------------|----------------------|
|---------------------|----------------------|
|--9--9--9---9--9--9--|-----9--9---9--9--9---|
|--9--9--9---9--9--9--|-----9--9---9--9--9-0-|
|--9--9--9---9--9--9--|-----9--9---9--9--9-0-|
|
|  E  E  q   E  E  q     E  E  q   E  E  q
|---------------------|----------------------|
|-15-15-15--15-15-15--|-14-14-14--14-14-14---|
|-14-14-14--14-14-14--|-14-14-14--14-14-14---|
|-12-12-12--12-12-12--|-12-12-12--12-12-12---|
|---------------------|----------------------|
|---------------------|----------------------|


  G5                              A5
   E  E  q   E  E  q     E  E  q   E  E  E E
|---------------------|----------------------||
|---------------------|----------------------||
|---------------------|----------------------||
|--5--5--5---5--5--5--|-----5--5---7--7--7---||
|--5--5--5---5--5--5--|-----5--5---7--7--7---||
|--5--5--5---5--5--5--|-----5--5---7--7--7---||
|
|  E  E  q   E  E  q     E  E  q   E  E  q
|---------------------|----------------------||
|---------------------|----------------------||
|-14-14-14--14-14-14--|-14-14-14--14-14-14---||
|-12-12-12--12-12-12--|-12-12-12--12-12-12---||
|-12-12-12--12-12-12--|-12-12-12--12-12-12---||
|---------------------|----------------------||


 Verse
  N.C.
  Gtr IV
  PM----------------------------------------|
  E E E E  E E   E  E    E  E E E  E E   E  E
|---------------------|-----------------------|
|---------10---(10)---|-----------10---(10)---|
|---7---7----7------7-|-----7---7----7------7-|
|-9---9----------9----|-(9)---9----------9----|
|---------------------|-----------------------|
|---------------------|-----------------------|
|
| Gtr I
| W                     +W
|---------------------|-----------------------|
|-7-------------------|-(7)-------------------|
|---------------------|-----------------------|
|---------------------|-----------------------|
|---------------------|-----------------------|
|---------------------|-----------------------|


  PM-----------------------------------------|
  E E E E  E E   E  E    E  E  E E  E E   E  E
|---------------------|------------------------|
|---------10---(10)---|------------12---(12)---|
|---7---7----7------7-|-----9----9----9------9-|
|-9---9----------9----|-(9)---11---------11----|
|---------------------|------------------------|
|---------------------|------------------------|
|
| W                      W
|---------------------|------------------------|
|-7-------------------|------------------------|
|---------------------|--9---------------------|
|---------------------|------------------------|
|---------------------|------------------------|
|---------------------|------------------------|


  PM----------------------------------------|
  E E E E  E E   E  E    E  E E E  E E   E  E
|---------------------|-----------------------|
|---------10---(10)---|-----------10---(10)---|
|---7---7----7------7-|-----7---7----7------7-|
|-9---9----------9----|-(9)---9----------9----|
|---------------------|-----------------------|
|---------------------|-----------------------|
|
| W                     +W
|---------------------|-----------------------|
|-7-------------------|-(7)-------------------|
|---------------------|-----------------------|
|---------------------|-----------------------|
|---------------------|-----------------------|
|---------------------|-----------------------|


  PM-------------------------------------------|
  E  E E E  E  E   E  E    E  E  E E  E E   E  E
|-----------------------|------------------------||
|----------10----(10)---|------------12---(12)---||
|----7---7-----7------7-|-----9----9----9------9-||
|-9----9-----------9----|-(9)---11---------11----||
|-----------------------|------------------------||
|-----------------------|------------------------||
|
| Q.     E +H             +W
|-----------------------|------------------------||
|-----------------------|------------------------||
|-7---------------------|------------------------||
|--------7-(7)----------|-(7)--------------------||
|-----------------------|------------------------||
|-----------------------|------------------------||


    B5                    G5
    PM----------------------------------------|
    E E E E  E E   E  E    E  E E E  E E   E  E
||----------------------|-----------------------|
||o---------10---(10)---|-----------10---(10)---|
||----7---7----7------7-|-----7---7----7------7-|
||--9---9----------9----|-(9)---9----------9----|
||o---------------------|-----------------------|
||----------------------|-----------------------|
|
|   Gtrs II, III
|   PM----------------------------------------|
|   E E E E  E E   E  E    E  E E E  E E   E  E
||----------------------|-----------------------|
||o---------------------|-----------------------|
||----------------------|-----------------------|
||----------------------|-----------------------|
||o-9-9-9-9--9-9---9--9-|--5--5-5-5--5-5---5--5-|
||--9-9-9-9--9-9---9--9-|--5--5-5-5--5-5---5--5-|


  D                     A5
  PM-----------------------------------------|
  E E E E  E E   E  E    E  E  E E  E E   E  E
|---------------------|------------------------|
|---------10---(10)---|------------12---(12)---|
|---7---7----7------7-|-----9----9----9------9-|
|-9---9----------9----|-(9)---11---------11----|
|---------------------|------------------------|
|---------------------|------------------------|
|
| PM-----------------------------------------|
| E E E E  E E   E  E    E  E  E E  E E   E  E
|---------------------|------------------------|
|---------------------|------------------------|
|---------------------|------------------------|
|---------------------|------------------------|
|-9-9-9-9--9-9---9--9-|--7--7--7-7--7-7---7--7-|
|-0-0-0-0--0-0---0--0-|--7--7--7-7--7-7---7--7-|


  B5                    G5
  PM----------------------------------------|
  E E E E  E E   E  E    E  E E E  E E   E  E
|---------------------|-----------------------|
|---------10---(10)---|-----------10---(10)---|
|---7---7----7------7-|-----7---7----7------7-|
|-9---9----------9----|-(9)---9----------9----|
|---------------------|-----------------------|
|---------------------|-----------------------|
|
| PM----------------------------------------|
| E E E E  E E   E  E    E  E E E  E E   E  E
|---------------------|-----------------------|
|---------------------|-----------------------|
|---------------------|-----------------------|
|---------------------|-----------------------|
|-9-9-9-9--9-9---9--9-|--5--5-5-5--5-5---5--5-|
|-9-9-9-9--9-9---9--9-|--5--5-5-5--5-5---5--5-|


  1.
  D                     A5
  PM-----------------------------------------|
  E E E E  E  E  E  E     E  E  E E  E  E  E  E
|---------------------|-------------------------|
|---------10-10-10-10-|-(10)--------12-12-12-12-|
|---7---7--7--7--7--7-|--(7)-9----9--9--9--9--9-|
|-9---9----9--9--9--9-|--(9)---11---11-11-11-11-|
|---------------------|-------------------------|
|---------------------|-------------------------|
|
| Gtr II
| PM--|
| E E E E  E  E  E  E     E  E  E E  E  E  E  E
|---------------------|-------------------------|
|-7-7-7-7--7--7--7--7-|-------------------------|
|-7-7-7-7--7--7--7--7-|---9--9--9-9--9--9--9--9-|
|-7-7-7-7--7--7--7--7-|---7--7--7-7--7--7--7--7-|
|-9-9-9-9--9--9--9--9-|---7--7--7-7--7--7--7--7-|
|-0-0-0-0--0--0--0--0-|---7--7--7-7--7--7--7--7-|
|
| Gtr III
| PM---------|
| E E E E  E  E  E  E     E  E  E E  E  E  E  E
|---------------------|-------------------------|
|---------------------|-------------------------|
|---------------------|-------------------------|
|-0-0-0-0--0--0--0--0-|---7--7--7-7--7--7--7--7-|
|-0-0-0-0--0--0--0--0-|---7--7--7-7--7--7--7--7-|
|-0-0-0-0--0--0--0--0-|---7--7--7-7--7--7--7--7-|


  B5
  PM----------------------------------------|
  E E E E  E E   E  E    E  E E E  E E   E  E
|---------------------|------------------------||
|---------10---(10)---|-----------10---(10)---o||
|---7---7----7------7-|-----7---7----7------7--||
|-9---9----------9----|-(9)---9----------9-----||
|---------------------|-----------------------o||
|---------------------|------------------------||
|
| Gtrs II, III
| W                     +H         Q     Q
|---------------------|------------------------||
|---------------------|-----------------------o||
|---------------------|------------------------||
|-9-------------------|-(9)--------------------||
|-9-------------------|-(9)--------xs====x\---o||
|-9-------------------|-(9)--------xs====x\----||


  2.
  D                     A5
  Gtr IV
  PM-----------------------------------------|
  E E E E  E  E  E  E     E  E  E E  E  E  E  E
|---------------------|-------------------------||
|---------10-10-10-10-|-(10)--------12-12-12-12-||
|---7---7--7--7--7--7-|--(7)-9----9--9--9--9--9-||
|-9---9----9--9--9--9-|--(9)---11---11-11-11-11-||
|---------------------|-------------------------||
|---------------------|-------------------------||
|
| Gtr II
| PM--|
| E E E E  E  E  E  E     E  E  E E  E  E  E  E
|---------------------|-------------------------||
|-7-7-7-7--7--7--7--7-|-------------------------||
|-7-7-7-7--7--7--7--7-|---9--9--9-9--9--9--9--9-||
|-7-7-7-7--7--7--7--7-|---7--7--7-7--7--7--7--7-||
|-9-9-9-9--9--9--9--9-|---7--7--7-7--7--7--7--7-||
|-0-0-0-0--0--0--0--0-|---7--7--7-7--7--7--7--7-||
|
| Gtr III
| PM---------|
| E E E E  E  E  E  E     E  E  E E  E  E  E  E
|---------------------|-------------------------||
|---------------------|-------------------------||
|---------------------|-------------------------||
|-0-0-0-0--0--0--0--0-|---7--7--7-7--7--7--7--7-||
|-0-0-0-0--0--0--0--0-|---7--7--7-7--7--7--7--7-||
|-0-0-0-0--0--0--0--0-|---7--7--7-7--7--7--7--7-||


 Chorus
  $
  $$
  G5            E5/A
  Gtrs II, III
  E E q  H      E E q  H
|-------------|-------------|
|-------------|-------------|
|-7-7-7-------|-------------|
|-5-5-5-------|-9-9-9-------|
|-5-5-5-------|-7-7-7-------|
|-5-5-5-------|-7-7-7-------|


  D/B
   E  E  E  E  E  E  E  E    E  E  E  E  E  E  E  E
|-------------------------|--------------------------|
|-------------------------|--------------------------|
|-------------------------|--------------------------|
|-12-12-12-12-12-12-12-12-|-12-12-12-12-12-12-12-12--|
|--9--9--9--9--9--9--9--9-|--9--9--9--9--9--9--9--9--|
|--9--9--9--9--9--9--9--9-|--9--9--9--9--9--9--9--9--|


  G5                        E5/A
   E  E  q     H            E E q    H
|-------------------------|---------------------|
|-------------------------|---------------------|
|--7--7--7----------------|---------------------|
|--5--5--5----------------|-9-9-9---------------|
|--5--5--5----------------|-7-7-7---------------|
|--5--5--5----------------|-7-7-7---------------|
|
| Gtr IV
|  E  E  E  E  E  E  E  E   E E E E  E  E  E  E
|-------------10-10-10-10-|-9-9-9-9-------------|
|-10-10-10-10--x--x--x--x-|-x-x-x-x-10-10-10-10-|
|--x--x--x--x--7--7--7--7-|-6-6-6-6--x--x--x--x-|
|--7--7--7--7-------------|----------7--7--7--7-|
|-------------------------|---------------------|
|-------------------------|---------------------|


  D/B
   E  E  E  E  E  E  E  E    E  E  E  E  E  E  E  E
|-------------------------|--------------------------|
|-------------------------|--------------------------|
|-------------------------|--------------------------|
|-12-12-12-12-12-12-12-12-|-12-12-12-12-12-12-12-12--|
|--9--9--9--9--9--9--9--9-|--9--9--9--9--9--9--9--9--|
|--9--9--9--9--9--9--9--9-|--9--9--9--9--9--9--9--9--|
|
|  E  E  E  E  E  E  E  E    Q     E  E  E  E  E  E
|-10-10-10-10-10-10-10s12s|=10----10-12-10-10--9-----|
|--x--x--x--x--x--x--x----|--------x--x--x--x--x-10--|
|--7--7--7--7--7--7--7s=9s|==7-----7--9--7--7--6--x--|
|-------------------------|-----------------------7--|
|-------------------------|--------------------------|
|-------------------------|--------------------------|


  G5                      E5/A
    E  E  q     H          E  E  q     H
|-----------------------|----------------------|
|-----------------------|----------------------|
|---7--7--7-------------|----------------------|
|---5--5--5-------------|--9--9--9-------------|
|---5--5--5-------------|--7--7--7-------------|
|---5--5--5-------------|--7--7--7-------------|
|
|   E  E  E  E  E E E E    E  E  E  E  E E E E
|-----------------------|----------------------|
|-/10-10-10-10-10-------|-10-10-10-10-10-------|
|-----------------7-6---|----------------7-6---|
|---------------------7-|--------------------7-|
|-----------------------|----------------------|
|-----------------------|----------------------|


  D/B
   E  E  E  E  E  E  E  E    E  E  E  E  E  E  E  E
|-------------------------|--------------------------|
|-------------------------|--------------------------|
|-------------------------|--------------------------|
|-12-12-12-12-12-12-12-12-|-12-12-12-12-12-12-12-12--|
|--9--9--9--9--9--9--9--9-|--9--9--9--9--9--9--9--9--|
|--9--9--9--9--9--9--9--9-|--9--9--9--9--9--9--9--9--|
|
|  E  E  E  E  E  E  E  E    E  E  E  E  E  E  E  E
|-------------------------|-------------10-10--------|
|-10-10-10-10-10----------|--------------x--x-10-10--|
|-----------------7--6--7-|--9--7--6--7--7--7--x--x--|
|-------------------------|--------------------7--7--|
|-------------------------|--------------------------|
|-------------------------|--------------------------|


                                       To Coda
                                       To Coda
  G5                        E5/A
   E  E  q     H             E  E  q    H
|-------------------------|---------------------|
|-------------------------|---------------------|
|--7--7--7----------------|---------------------|
|--5--5--5----------------|--9--9--9------------|
|--5--5--5----------------|--7--7--7------------|
|--5--5--5----------------|--7--7--7------------|
|
|  E  E  E  E  E  E  E  E    E  E  E  E E E E E
|-------------------------|-10-10-10-10-9-9-9-9-|
|-10-10-10-10-10-10-10-10-|--x--x--x--x-x-x-x-x-|
|--x--x--x--x--x--x--x--x-|--7--7--7--7-6-6-6-6-|
|--7--7--7--7--7--7--7--7-|---------------------|
|-------------------------|---------------------|
|-------------------------|---------------------|


  W                      W
|---------------------|------------------------|
|---------------------|------------------------|
|---------------------|------------------------|
|---------------------|------------------------|
|---------------------|------------------------|
|---------------------|------------------------|
|
| PM----------------------------------------|
| E E E E  E E   E  E    E  E E E  E E   E  E
|---------------------|------------------------|
|---------10---(10)---|-----------10---(10)----|
|---7---7----7------7-|-----7---7----7------7--|
|-9---9----------9----|-(9)---9----------9-----|
|---------------------|------------------------|
|---------------------|------------------------|


  Gtr IV
  PM----------------------------------------|
  E E E E  E E   E  E    E  E E E  E E   E  E
|---------------------|-----------------------||
|---------10---(10)---|-----------10---(10)---||
|---7---7----7------7-|-----7---7----7------7-||
|-9---9----------9----|-(9)---9----------9----||
|---------------------|-----------------------||
|---------------------|-----------------------||
|
| Gtrs II, III
| W                      H         Q     Q
|---------------------|-----------------------||
|---------------------|-----------------------||
|---------------------|-----------------------||
|---------------------|-----------------------||
|---------------------|------------xs====x\---||
|---------------------|------------xs====x\---||


   Verse 2
    B5                        G5
    PM----------------------------------------|
    E E E E  E E   E  E    E  E E E  E E   E  E
||----------------------|-----------------------|
||o---------10---(10)---|-----------10---(10)---|
||----7---7----7------7-|-----7---7----7------7-|
||--9---9----------9----|-(9)---9----------9----|
||o---------------------|-----------------------|
||----------------------|-----------------------|
|
|   Gtrs II, III
|   PM|   PM---|              PM  PM---|
|   E E E E  E E   E  E    E  E E E  E E   E  E
||----------------------|-----------------------|
||o---------------------|-----------------------|
||----------------------|-----------------------|
||------9----------9--9-|--9\---5----------5--5-|
||o-9-9-9-9--9-9---9--9-|--9\-5-5-5--5-5---5--5-|
||--9-9-9-9--9-9---9--9-|--9\-5-5-5--5-5---5--5-|

[ Tab from: http://www.guitartabs.cc/tabs/s/story_of_the_year/until_the_day_i_die_tab_ver_9.html ]
  D                           A5
  PM---------------------------------------------|
  E E E E    E E   E  E    E  E  E E    E E   E  E
|-----------------------|---------------------------||
|-----------10---(10)---|--------------12---(12)---o||
|---7---7------7------7-|-----9----9------9------9--||
|-9---9------------9----|-(9)---11-----------11-----||
|-----------------------|--------------------------o||
|-----------------------|---------------------------||
|
| PM|   PM-----|              PM   PM-----|
| E E E S S  E E   E  E    E  E  E S S  E E   E  E
|-----------------------|---------------------------||
|-----7------------7--7-|--7-----------------------o||
|-----7------------7--7-|--7-----9------------9--9--||
|-----7------------7--7-|--7-----7------------7--7--||
|-9-9-9-9-9--9-9---9--9-|--9--7--7-7-7--7-7---7--7-o||
|-0-0-0-0-0--0-0---0--0-|--0--7--7-7-7--7-7---7--7--||


    B5                        G5
    PM----------------------------------------|
    E E E E  E E   E  E    E  E E E  E E   E  E
||----------------------|-----------------------|
||o---------10---(10)---|-----------10---(10)---|
||----7---7----7------7-|-----7---7----7------7-|
||--9---9----------9----|-(9)---9----------9----|
||o---------------------|-----------------------|
||----------------------|-----------------------|
|
|   PM----|    PM|            PM--|    PM|
|   E E E E  E E   E  E    E  E E E  E E   E  E
||----------------------|-----------------------|
||o---------------------|-----------------------|
||----------------------|-----------------------|
||-----------9--------9-|------------5--------5-|
||o-9-9-9-9--9-9---9--9-|--0--5-5-5--5-5---5--5-|
||--9-9-9-9--9-9---9--9-|--0--5-5-5--5-5---5--5-|


  1.
  D                     A5
  PM-----------------------------------------|
  E E E E  E E   E  E    E  E  E E  E E   E  E
|---------------------|-------------------------||
|---------10---(10)---|------------12---(12)---o||
|---7---7----7------7-|-----9----9----9------9--||
|-9---9----------9----|-(9)---11---------11-----||
|---------------------|------------------------o||
|---------------------|-------------------------||
|
| PM----|    PM|         PM------|    PM|
| E E E E  E E   E  E    E  E  E E  E E   E  E
|---------------------|-------------------------||
|----------7--------7-|------------------------o||
|----------7--------7-|-------------9--------9--||
|----------7--------7-|-------------7--------7--||
|-9-9-9-9--9-9---9--9-|--7--7--7-7--7-7---7--7-o||
|-0-0-0-0--0-0---0--0-|--7--7--7-7--7-7---7--7--||


  2.
  D                     A5
  PM-----------------------------------------|
  E E E E  E  E  E  E     E  E  E E  E  E  E  E
|---------------------|-------------------------|
|---------10-10-10-10-|-(10)--------12-12-12-12-|
|---7---7--7--7--7--7-|--(7)-9----9--9--9--9--9-|
|-9---9----9--9--9--9-|--(9)---11---11-11-11-11-|
|---------------------|-------------------------|
|---------------------|-------------------------|
|
| Gtr II
| E E E E  E  E  E  E     E  E  E E  E  E  E  E
|---------------------|-------------------------|
|-7-7-7-7--7--7--7--7-|-------------------------|
|-7-7-7-7--7--7--7--7-|---9--9--9-9--9--9--9--9-|
|-7-7-7-7--7--7--7--7-|---7--7--7-7--7--7--7--7-|
|-9-9-9-9--9--9--9--9-|---7--7--7-7--7--7--7--7-|
|-0-0-0-0--0--0--0--0-|---7--7--7-7--7--7--7--7-|
|
| Gtr III
| PM----|     PM|         PM------|     PM|
| E E E E  E  E  E  E     E  E  E E  E  E  E  E
|---------------------|-------------------------|
|----------7--------7-|-------------------------|
|----------7--------7-|--------------9--------9-|
|----------7--------7-|--------------7--------7-|
|-9-9-9-9--9--9--9--9-|---7--7--7-7--7--7--7--7-|
|-0-0-0-0--0--0--0--0-|---7--7--7-7--7--7--7--7-|


                                     D.S. al Coda
    PM-------------------------------------------|
    E  E  E E  E  E  E  E     E  E  E E  E  E  E  E
|-------------------------|-------------------------||
|-(12)--------12-12-12-12-|-(12)--------12-12-12-12-||
|--(9)-9----9--9--9--9--9-|--(9)-9----9--9--9--9--9-||
|-(11)---11---11-11-11-11-|-(11)---11---11-11-11-11-||
|-------------------------|-------------------------||
|-------------------------|-------------------------||
|
|   E  E  E E  E  E  E  E     E  E  E E  E  E  E  E
|-------------------------|-------------------------||
|-------------------------|-------------------------||
|---9--9--9-9--9--9--9--9-|---9--9--9-9--9--9--9--9-||
|---7--7--7-7--7--7--7--7-|---7--7--7-7--7--7--7--7-||
|---7--7--7-7--7--7--7--7-|---7--7--7-7--7--7--7--7-||
|---7--7--7-7--7--7--7--7-|---7--7--7-7--7--7--7--7-||
|
|   PM---------------------------|
|   E  E  E E  E  E  E  E     E  E  E E  E  E  E  E
|-------------------------|-------------------------||
|-------------------------|-------------------------||
|-------------------------|-------------------------||
|-------------------------|------7--7-7--7--7--7--7-||
|---7--7--7-7--7--7--7--7-|---7--7--7-7--7--7--7--7-||
|---7--7--7-7--7--7--7--7-|---7--7--7-7--7--7--7--7-||


   Bridge
    &
    D/B     A       D5/G
    Gtrs II, III
     E  E E  E  E E E E   +E  E E E E E E E
||----------------------|--------------------||
||o---------------------|-------------------o||
||----------------------|--------------------||
||--12-12---11-11---7-7-|-(7)-7-7-7-7-7-7-7--||
||o--9--9----7--7---5-5-|-(5)-5-5-5-5-5-5-5-o||
||---9--9----7--7---5-5-|-(5)-5-5-5-5-5-5-5--||


  D/B     A       D5/G
  Gtr IV
   E  E E  E  E E  E  E    E   E   Q       E    E   Q
|-----------------------|------------------9s==10s==9-------|
|-----------------12-10-|-----10-----------x----------------|
|------------------x--x-|------x-----------6s===7s==6-------|
|---------------0--9--7-|------7----------------------------|
|--5--4-0--7--9---------|-----------------------------------|
|-----------------------|-----------------------------------|
|
| Gtrs II, III
|  E  E E  E  E E  E  E   +E   S S S S S S S S  S S S S S S
|-----------------------|-----------------------------------|
|-----------------------|-----------------------------------|
|-----------------------|-----------------------------------|
|-12-12---11-11----7--7-|-(7)--x-x-x-x-x-x-x-x--x-x-x-x-x-x-|
|--9--9----7--7----5--5-|-(5)--x-x-x-x-x-x-x-x--x-x-x-x-x-x-|
|--9--9----7--7----5--5-|-(5)--x-x-x-x-x-x-x-x--x-x-x-x-x-x-|


  D/B     A       Dsus2/G
   E  E E  E  E E  E  E    E   E Q   E  E Q
|-----------------------|------------9s10s9---|
|-----------------12-10-|-----10-----x--------|
|------------------x--x-|------x-----6s=7s6---|
|---------------0--9--7-|------7--------------|
|--5--4-0--7--9---------|---------------------|
|-----------------------|---------------------|
|
|                                PM|    PM
|  E  E E  E  E E  E  E   +E   E E E E  E E E
|------------------5--5-|------5-----5----5-5-|
|------------------5--5-|------5-----5----5-5-|
|------------------7--7-|------7-----7----7-7-|
|-12-12---11-11----7--7-|-(7)--7-----7----7-7-|
|--9--9----7--7----5--5-|-(5)--5-5-5-5--5-5-5-|
|--9--9----7--7----5--5-|-(5)--5-5-5-5--5-5-5-|


    Gtr IV
    PM----------------------------------------|
    E E E E  E E   E  E    E  E E E  E E   E  E
||----------------------|------------------------||
||o---------10---(10)---|-----------10---(10)---o||
||----7---7----7------7-|-----7---7----7------7--||
||--9---9----------9----|-(9)---9----------9-----||
||o---------------------|-----------------------o||
||----------------------|------------------------||


   Interlude
    Bm                       A
    Gtr IV
    PM--------------------------------------
    E  E E E  E  E E E    E  E E E E E E E
||---------------------|-------------------|
||o--------------------|-------------------|
||------------7------7-|-----------6-----6-|
||--9--9-9-9-----9-9---|-(9)-7-7-7---7-7---|
||o--------------------|-------------------|
||---------------------|-------------------|
|
|   Gtr I
|   Q.     E +H          +W
||---------------------|-------------------|
||o-7------------------|-------------------|
||---------7-(7)-------|-(7)---------------|
||---------------------|-------------------|
||o--------------------|-------------------|
||---------------------|-------------------|


  G5                      D5/A
 ---------------------------------------|
  E  E E E  E E E E    E  E E E S S E E E
|-------------------|-----------------------||
|-------------------|----------------------o||
|-----------7-----7-|-----------6h7p6---6---||
|-5--5-5-5----5-5---|-(5)-7-7-7-------7-----||
|-------------------|----------------------o||
|-------------------|-----------------------||
|
| Q.     Q.     Q     +W
|-------------------|-----------------------||
|-7-----------------|----------------------o||
|--------7----------|-----------------------||
|---------------0---|-(0)-------------------||
|-------------------|----------------------o||
|-------------------|-----------------------||


  Bm                       A
  Gtr IV
  PM--------------------------------------
  E  E E E  E  E E E    E  E E E E E E E
|--------------------|-------------------|
|--------------------|-------------------|
|-----------7------7-|-----------6-----6-|
|-9--9-9-9-----9-9---|-(9)-7-7-7---7-7---|
|--------------------|-------------------|
|--------------------|-------------------|
|
| Gtr I
| Q.     E +H          +W
|--------------------|-------------------|
|-7------------------|-------------------|
|--------7-(7)-------|-(7)---------------|
|--------------------|-------------------|
|--------------------|-------------------|
|--------------------|-------------------|
|
| Gtr V
| E  E q    E  E q      E  E q   E E q
|--------------------|-------------------|
|--------------------|-------------------|
|-7--7-7----7--7-7---|--7--7-7---7-7-7---|
|-x--x-x----x--x-x---|--x--x-x---x-x-x---|
|-5--5-5----5--5-5---|--5--5-5---5-5-5---|
|--------------------|-------------------|


  G5                      D5/A
 ---------------------------------------|
  E  E E E  E E E E    E  E E E S S E E E
|-------------------|---------------------|
|-------------------|---------------------|
|-----------7-----7-|-----------6h7p6---6-|
|-5--5-5-5----5-5---|-(5)-7-7-7-------7---|
|-------------------|---------------------|
|-------------------|---------------------|
|
| Q.     Q.     Q     +W
|-------------------|---------------------|
|-7-----------------|---------------------|
|--------7----------|---------------------|
|---------------0---|-(0)-----------------|
|-------------------|---------------------|
|-------------------|---------------------|
|
| E  E q    E E q      E  E q   E   E q
|-------------------|---------------------|
|-------------------|---------------------|
|-7--7-7----7-7-7---|--6--6-6---6---6-6---|
|-x--x-x----x-x-x---|--x--x-x---x---x-x---|
|-5--5-5----5-5-5---|--4--4-4---4---4-4---|
|-------------------|---------------------|


  Bm                       A
  Gtr IV
  PM--------------------------------------
  E  E E E  E  E E E    E  E E E E E E E
|--------------------|-------------------|
|--------------------|-------------------|
|-----------7------7-|-----------6-----6-|
|-9--9-9-9-----9-9---|-(9)-7-7-7---7-7---|
|--------------------|-------------------|
|--------------------|-------------------|
|
| Gtr I
| Q.     E +H          +W
|--------------------|-------------------|
|-7------------------|-------------------|
|--------7-(7)-------|-(7)---------------|
|--------------------|-------------------|
|--------------------|-------------------|
|--------------------|-------------------|
|
| Gtr V
| E  E E E  E  E E E    E  E E E E E E E
|--------------------|-------------------|
|--------------------|-------------------|
|-7--7-7----7--7-7---|--7--7-7-7-7-7-7-7-|
|-x--x-x----x--x-x---|--x--x-x-x-x-x-x-x-|
|-5--5-5-0--5--5-5-0-|--5--5-5-5-5-5-5-5-|
|--------------------|-------------------|


  G5
 -------------------------------------|
  E  E E E  E E E E    E  E E E E E E E
|-------------------|--------------------|
|-------------------|--------------------|
|-7------7------7---|-----7-----7---7----|
|----5-5----5-5---5-|--5----5-5---5---5--|
|-------------------|--------------------|
|-------------------|--------------------|
|
| Q.     Q.     Q     +W
|-------------------|--------------------|
|-7-----------------|--------------------|
|--------7----------|--------------------|
|---------------0---|-(0)----------------|
|-------------------|--------------------|
|-------------------|--------------------|
|
| E  E E E  E E E E    E  E E E E E E E
|-------------------|--------------------|
|-------------------|--------------------|
|-7--7-7-7--7-7-7-7-|--7--7-7-7-7-7-7-7--|
|-x--x-x-x--x-x-x-x-|--x--x-x-x-x-x-x-x--|
|-5--5-5-5--5-5-5-5-|--5--5-5-5-5-5-5-5--|
|-------------------|--------------------|


  D5/A
   E  E  E  E  E  E  E  E    E  E  E  E  E  E  E  E
|-------------------------|-------------------------||
|-------------------------|-------------------------||
|--6--------6--------6----|-----6--------6-----6----||
|-----7--7-----7--7-----7-|--7-----7--7-----7-----7-||
|-------------------------|-------------------------||
|-------------------------|-------------------------||
|
|  E  E  E  E  E  E  E  E    E  E  E  E  E  E  E  E
|-------------------------|-------------------------||
|-------------------------|-------------------------||
|-------------------------|-------------------------||
|-11-11-11-11-11-11-11-11-|-11-11-11-11-11-11-11-11-||
|--7--7--7--7--7--7--7--7-|--7--7--7--7--7--7--7--7-||
|--7--7--7--7--7--7--7--7-|--7--7--7--7--7--7--7--7-||
|
|  E  E  E  E  E  E  E  E    E  E  E  E  E  E  E  E
|-------------------------|-------------------------||
|-------------------------|-------------------------||
|--6--6--6--6--6--6--6--6-|--6--6--6--6--6--6--6--6-||
|--x--x--x--x--x--x--x--x-|--x--x--x--x--x--x--x--x-||
|--4--4--4--4--4--4--4--4-|--4--4--4--4--4--4--4--4-||
|-------------------------|-------------------------||


 Chorus
  D5/A
  Gtr VI
  E E E E E E E  E   E E E E  E E  E  E
  | | | | | | |  |   | | | |  | |  |  |
  / / / / / / /  /   / / / /  / /  /  /

  Gtr I
  Q   Q   Q   Q      Q   Q    Q    Q
|---------5---5----|--------------------|
|---------8---8----|---------10---10----|
|---------7---7----|----------9----9----|
|-5---5---5---5/---|-7---7----7----7/---|
|-5---5---5---5/---|-7---7----7----7/---|
|-5---5---5---5/---|-7---7----7----7/---|


  E E E E  E E E  E   E  E E E  E E E  E
  | | | |  | | |  |   |  | | |  | | |  |
  / / / /  / / /  /   /  / / /  / / /  /

  Q   Q    Q   E  E   E  E Q    Q   E  E
|-------------------|--------------------|
|---------10-----10-|---10-----10-----10-|
|---------11-----11-|---11-----11-----11-|
|-9---9----9---9--9-|-9--9-9----9---9--9-|
|-9---9----9---9--9-|-9--9-9----9---9--9-|
|-9---9----9---9--9-|-9--9-9----9---9--9-|


  D5/A
  Gtr VI
  E E E E E E E  E    E  E E E  E E  E  E
  | | | | | | |  |    |  | | |  | |  |  |
  / / / / / / /  /    /  / / /  / /  /  /

  Gtr I
  Q   Q   Q   Q       Q    Q    Q    Q
|---------5---5----|----------------------|
|---------8---8----|-----------10---10----|
|---------7---7----|------------9----9----|
|-5---5---5---5/---|--7----7----7----7/---|
|-5---5---5---5/---|--7----7----7----7/---|
|-5---5---5---5/---|--7----7----7----7/---|
|
| Gtr V
| Q   Q   E E Q      +Q    Q    E E  Q
|------------------|----------------------|
|---------7--------|------------7---------|
|-7---------7------|--------------7-------|
|-----7-------7----|-(7)---7---------7----|
|------------------|----------------------|
|------------------|----------------------|


                     D.S.S. al Dbl. Coda
  E E E E  E E E  E    E   E E E  E E E  E
  | | | |  | | |  |    |   | | |  | | |  |
  / / / /  / / /  /    /   / / /  / / /  /

  Q   Q    Q   E  E    E   E Q    Q   E  E
|-------------------|----------------------||
|---------10-----10-|-----10-----10-----10-||
|---------11-----11-|-----11-----11-----11-||
|-9---9----9---9--9-|--9---9-9----9---9--9-||
|-9---9----9---9--9-|--9---9-9----9---9--9-||
|-9---9----9---9--9-|--9---9-9----9---9--9-||
|
| Q   Q    E E Q      +Q     Q    E E Q
|-------------------|----------------------||
|----------7--------|-------------7--------||
|-7----------7------|---------------7------||
|-----7--------7----|-(7)----7--------7----||
|-------------------|----------------------||
|-------------------|----------------------||
|
| Gtrs II, III
| W                    H          H
|-------------------|----------------------||
|-------------------|-------------0--------||
|-------------------|-------------6--------||
|-------------------|----------------------||
|-------------------|----------------------||
|-------------------|----------------------||


  &&
  B5
  Gtrs II, III
  PM------|
  E E E E E E E E   Q  Q  Q  Q
|-----------------|--------------||
|-----------------|--------------||
|-----------------|--------------||
|---------9-9-9-9-|--------------||
|-9-9-9-9-9-9-9-9-|-xs=xs=xs=x\--||
|-9-9-9-9-9-9-9-9-|-xs=xs=xs=x\--||


 Out-Chorus
  G5                E5/A
  E E E E E E E E   E E E E E E E E
|-----------------|-----------------|
|-----------------|-----------------|
|-7-7-7-7-7-7-7-7-|-9-9-9-9-9-9-9-9-|
|-5-5-5-5-5-5-5-5-|-9-9-9-9-9-9-9-9-|
|-5-5-5-5-5-5-5-5-|-7-7-7-7-7-7-7-7-|
|-5-5-5-5-5-5-5-5-|-7-7-7-7-7-7-7-7-|


  Dadd9/B
   E  E  E  E  E  E  E  E    E  E  E  E  E  E  E  E
|-------------------------|-------------------------|
|-------------------------|-------------------------|
|-11-11-11-11-11-11-11-11-|-11-11-11-11-11-11-11-11-|
|-12-12-12-12-12-12-12-12-|-12-12-12-12-12-12-12-12-|
|--9--9--9--9--9--9--9--9-|--9--9--9--9--9--9--9--9-|
|--9--9--9--9--9--9--9--9-|--9--9--9--9--9--9--9--9-|


  G5                E5/A
  E E E E E E E E   E E E E E E E E
|-----------------|-----------------||
|-----------------|-----------------||
|-7-7-7-7-7-7-7-7-|-9-9-9-9-9-9-9-9-||
|-5-5-5-5-5-5-5-5-|-9-9-9-9-9-9-9-9-||
|-5-5-5-5-5-5-5-5-|-7-7-7-7-7-7-7-7-||
|-5-5-5-5-5-5-5-5-|-7-7-7-7-7-7-7-7-||


   Outro
    B5
    Gtrs II, III
     E  E  q   E  E  q     E  E  q   E  E  E E
||----------------------|----------------------|
||o---------------------|----------------------|
||----------------------|----------------------|
||---9--9--9---9--9--9--|-----9--9---9--9--9---|
||o--9--9--9---9--9--9--|-----9--9---9--9--9-0-|
||---9--9--9---9--9--9--|-----9--9---9--9--9-0-|
|
|   Gtr IV
|    E  E  q   E  E  q     E  E  q   E  E  q
||----------------------|----------------------|
||o-15-15-15--15-15-15--|-14-14-14--14-14-14---|
||--14-14-14--14-14-14--|-14-14-14--14-14-14---|
||--12-12-12--12-12-12--|-12-12-12--12-12-12---|
||o---------------------|----------------------|
||----------------------|----------------------|


  G5                              A5
   E  E  q   E  E  q     E  E  q   E  E  E E
|---------------------|-----------------------||
|---------------------|----------------------o||
|---------------------|-----------------------||
|--5--5--5---5--5--5--|-----5--5---7--7--7-7--||
|--5--5--5---5--5--5--|-----5--5---7--7--7-7-o||
|--5--5--5---5--5--5--|-----5--5---7--7--7-7--||
|
|  E  E  q   E  E  q     E  E  q   E  E  q
|---------------------|-----------------------||
|---------------------|----------------------o||
|-14-14-14--14-14-14--|-14-14-14--14-14-14----||
|-12-12-12--12-12-12--|-12-12-12--12-12-12----||
|-12-12-12--12-12-12--|-12-12-12--12-12-12---o||
|---------------------|-----------------------||


  B5      A5    G5
   E  E E E E E  E  E    +W
|---------------------|---------|
|---------------------|---------|
|---------------------|---------|
|--9--9---7-7----5--5-|--(5)----|
|--9--9---7-7----5--5-|--(5)----|
|--9--9---7-7----5--5-|--(5)----|
|
|                         >
|  E  E E E E E  E  E    +W
|-10-10---9-9---------|---------|
|--x--x---x-x---10-10-|-(10)----|
|--7--7---6-6----x--x-|---------|
|----------------7--7-|--(7)----|
|---------------------|---------|
|---------------------|---------|


  +W           +W           +W           +W
|------------|------------|------------|------------|
|------------|------------|------------|------------|
|------------|------------|------------|------------|
|-(5)--------|-(5)--------|-(5)--------|-(5)--------|
|-(5)--------|-(5)--------|-(5)--------|-(5)--------|
|-(5)--------|-(5)--------|-(5)--------|-(5)--------|


  +W           +W           +W           +W           +W
|------------|------------|------------|------------|--------*|
|------------|------------|------------|------------|--------*|
|------------|------------|------------|------------|--------*|
|-(5)--------|-(5)--------|-(5)--------|-(5)--------|-(5)----*|
|-(5)--------|-(5)--------|-(5)--------|-(5)--------|-(5)----*|
|-(5)--------|-(5)--------|-(5)--------|-(5)--------|-(5)----*|


Duration Legend
---------------
W - whole; H - half; Q - quarter; E - 8th; S - 16th; T - 32nd; X - 64th; a - acciaccatura
+ - note tied to previous; . - note dotted; .. - note double dotted
Uncapitalized letters represent notes that are staccato (1/2 duration)
Irregular groupings are notated above the duration line
Duration letters will always appear directly above the note/fret number it represents the
duration for.  Duration letters with no fret number below them represent rests.  Multi-
bar rests are notated in the form Wxn, where n is the number of bars to rest for.  Low
melody durations appear below the staff

Tablature Legend
----------------
 h   - hammer-on
 p   - pull-off
 b   - bend
 pb  - pre-bend
 r   - bend release (if no number after the r, then release immediately)
 /\  - slide into or out of (from/to "nowhere")
 s   - legato slide
 S   - shift slide
  - natural harmonic
[n]  - artificial harmonic
n(n) - tapped harmonic
 ~   - vibrato
 tr  - trill
 T   - tap
 TP  - trem. picking
 PM  - palm muting
\n/  - tremolo bar dip; n = amount to dip
 \n  - tremolo bar down
 n/  - tremolo bar up
/n\  - tremolo bar inverted dip
 =   - hold bend; also acts as connecting device for hammers/pulls
 <>  - volume swell (louder/softer)
 x   - on rhythm slash represents muted slash
 o   - on rhythm slash represents single note slash

Misc Legend
-----------
 |  - bar
||  - double bar
||o - repeat start
o|| - repeat end
*|  - double bar (ending)
 :  - bar (freetime)
 $  - Segno
 &  - Coda
Tempo markers -  = BPM(8/16=s8/s16), where s8 = swing 8ths, s16 = swing 16ths
Comments