Story Of The Year - Until The Day I Die Chords & Tabs

 

Until The Day I Die Chords & Tabs

Story Of The Year Chords & Tabs

Version: 3 Type: Tab 6 ratings
1 star 2 stars 3 stars 4 stars 5 stars
comments

Until The Day I Die Tab

intro:   play  5 times         palm muted

---------------------------------------------------------------------------------------------------------
---14--------14---------------------------14--------------------14-------------------------14------------
-------12----------12-------------12-------------12------12-------------12-----------12------------12----
---------------------------14-------------------------------------------------14-------------------------
---------------------------------------------------------------------------------------------------------
---------------------------------------------------------------------------------------------------------
play 2 times

---------------------------------------------------------------3-3-3-----3-3-3-----5-5----5-5-5-------------
---2-2-2----------2-2-2-------------4-4-----------5-5-5--------3-3-3-----3-3-3-----5-5----5-5-5-------------
---2-2-2----------2-2-2-------------4-4-----------5-5-5--------3-3-3-----3-3-3-----5-5----5-5-5-------------
---2-2-2----------2-2-2-------------4-4-----------5-5-5-----------------------------------------------------
------------------------------------------------------------------------------------------------------------
------------------------------------------------------------------------------------------------------------

back to intro
[ Tab from: http://www.guitartabs.cc/tabs/s/story_of_the_year/until_the_day_i_die_tab_ver_3.html ]
chorus: play 4 times

------3-3-------------5-5---------------7-7-7-7-----------------------------------------------------------
------3-3-------------5-5---------------7-7-7-7-----------------------------------------------------------
------3-3-------------5-5---------------7-7-7-7-----------------------------------------------------------
----------------------------------------------------------------------------------------------------------
----------------------------------------------------------------------------------------------------------
----------------------------------------------------------------------------------------------------------

back to intro

to chorus

when he is screaming: play 4 times

---------7-7-------------5-5------------3-3---------------------------------------------------------------
---------7-7-------------5-5------------3-3---------------------------------------------------------------
---------7-7-------------5-5------------3-3---------------------------------------------------------------
----------------------------------------------------------------------------------------------------------
----------------------------------------------------------------------------------------------------------
----------------------------------------------------------------------------------------------------------
Comments