Story Of The Year - Until The Day I Die Chords & Tabs

 

Until The Day I Die Chords & Tabs

Story Of The Year Chords & Tabs

Version: 3 Type: Bass Tab 0 ratings
1 star 2 stars 3 stars 4 stars 5 stars
comments

Until The Day I Die Bass Tab

Hey all... I got these from a friend and made some changes.. good luck...

Intro                                 2x        
1|    |--------------------------------------|
2|    |--------------------------------------|
3|REST|--------------------------------------|
4|    |-777-777-777-101010--333-333-333-5555-|

1st Verse                            2x  2nd:
1|-------------------------------------|-------------|-------------------------------
2|-------------------------------------|-------------|-------------------------------
3|-------------------5555-555----------|-------------|-------------------------------
4|-7777-777-3333-333----------5555-555-|-5555-5/10\3-|-7777-7777-3333-3333-----------
5|-------------------------------------|-------------|---------------------3333-3333-
Cont.           2x                                                   2x        
1|-----------|    |------------------------------------------|
2|-----------|    |------------------------------------------|
3|-----------|REST|------------------------------------------|
4|-5555-5555-|    |-7777-7777-3333-3333-----------5555-5555--|
5|-----------|    |---------------------3333-3333------------|

Chorus                                3x
1|----------------------------------|---------------|
2|----------------------------------|---------------|
3|----------------------------------|---------------|
4|--333--555--7777-7777-7777-101098-|-333--555------|
5|----------------------------------|-----------0~--|
[ Tab from: http://www.guitartabs.cc/tabs/s/story_of_the_year/until_the_day_i_die_btab_ver_3.html ]
2nd Verse                                                2x
1|-------------|-----------------------------------------|---------------------
2|-------------|-----------------------------------------|---------------------
3|-------------|---------------------5555-5555-----------|---------------------
4|-5555-5/10\3-|-7777-7777-3333-3333-----------5555-5555-|-7777-7777-3333-3333-
5|-------------|-----------------------------------------|---------------------
Cont.
1|-----------------------------------------------------------------------------------|
2|-----------------------------------------------------------------------------------|
3|--------------------------------------------------------------------------12121212-|
4|-----------5555-5/10\3--7777-7777-3333-3333-----------5555-5555-5555-5555/---------|
5|-3333-3333----------------------------------3333-3333------------------------------|

Chorus  3x|----------|
          |----------|
          |----------|
          |-333--555-|
Bridge                     4x        
1|---------------------|------|
2|---------------------|------|
3|---------------------|------|
4|-77--55--x33-333-333-|------|
5|---------------------|--0~--|

Interlude
1|-----------------------------------------------------------------------------------|
2|-----------------------------------------------------------------------------------|
3|-2222-2222-0000-0000---------------------2222-2222-0000-0000-----------5h777-7/999-|
4|---------------------3333-3333-3333-3333---------------------3333-3333-------------|
Cont.
1|-------------------------------------------------------|
2|-------------------------------------------------------|
3|-2-2--0-0-----------2-2--0-0-101010101010-121212121212-|
4|-----------3-3-33-3------------------------------------|

|    |            |------------------------------|------------------------------------
|    |            |------------------------------|------------------------------------
|REST|Chorus    3x|----------12121212\5/12121212-|------------------------------------
|    |            |-333--555---------------------|-3333-3333-5555-5555-7777-7777-7777-
Cont.                                                END
1|------------------------------|        |-----------------|
2|------------------------------|        |-----------------|
3|------------------------------|Intro 2x|-----------------|
4|--101098--3333-3333-5555-5555-|        |--77--55-333-3~--|

best of luck to all.. I hope they are right, or at least they give you a start... bye..
Comments