Story Of The Year - Take Me Back Chords & Tabs

 

Take Me Back Chords & Tabs

Story Of The Year Chords & Tabs

Version: 2 Type: Bass Tab

Take Me Back Bass Tab

   
-------------------------------------------------------------------------------
			     Take Me Back - Story of the Year
-------------------------------------------------------------------------------

Tabbed By : matt
e-mail: snwbrd5830@aol.com

Tuning:D,A,D,G
0:09
G|----------------|    |----------------------|
D|----------------|    |----------------------|
A|------67--2-----|    |----------------------|
E|----6--------4--|X12 |--22222222--44444444--|X4 |--444555--|
[ Tab from: http://www.guitartabs.cc/tabs/s/story_of_the_year/take_me_back_btab_ver_2.html ]
1:01
G|-------|  G|----------------|    |----------------------|
D|-------|  D|----------------|    |----------------------|
A|--9999-|  A|------67--2-----|    |----------------------|
E|-------|  E|----6--------4--|X12 |--22222222--44444444--|X4 
                      
1:50
G|-------------|    |------------------------------------------------------|
D|-------------|    |------------------------------------------------------|
A|-----2---1---|    |-----21-------------------2222------------------------|
E|--66---4--4--|X3  |--66----4-2222-2222--6666------2222--4444-4444--6~----|

2:16
G|----------------------|   |----------------------|
D|----------------------|   |----------------------|
A|----------------------|   |----------------------|
E|--22222222--44444444--|X3 |--2222222211111/13\2--|

G|------------------------------------------|
D|------------------------------------------|
A|-------------------------------22222222---|
E|-22222222--444444444--66666666------------|X4

3:14
G|----------------------------------------------|
D|----------------------------------------------|
A|----------------------------------------------|
E|--2222-2222--4444-4444--6666-6666--4444-4444--|X2

G|-------------------|
D|-------------------|
A|-------------------|
E|--2~--4~--6~--4~---|X3



| /  slide up
| \  slide down
| h  hammer-on
| p  pull-off
| ~  vibrato
| +  harmonic
| x  Mute note
===============================================================================