Story Of The Year - Take Me Back Chords & Tabs

 

Take Me Back Chords & Tabs

Story Of The Year Chords & Tabs

Version: 1 Type: Bass Tab

Take Me Back Bass Tab

   
-------------------------------------------------------------------------------
			     TAKE ME BACK - Story of the Year
-------------------------------------------------------------------------------

Tabbed By : unerdanielson
e-mail:

Tuning:DADG

Guitar Intro
Then Bass comes in with everything else

Pre Chorus x 4

G|---------------------------------------------------------------------------|
D|---------------------------------------------------------------------------|
A|----66/77--9---------------------------------------------------------------|
D|6666-----99-4444-----------------------------------------------------------|

Verse x 4

G|---------------------------------------------------------------------------|
D|---------------------------------------------------------------------------|
A|----66/77------------------------------------------------------------------|
D|6666-----99-4444-----------------------------------------------------------|

Pre Chorus x 4

G|---------------------------------------------------------------------------|
D|---------------------------------------------------------------------------|
A|----66/77--9---------------------------------------------------------------|
D|6666-----99-4444-----------------------------------------------------------|

Chorus x 4

G|---------------------------------------------------------------------------|
D|---------------------------------------------------------------------------|
A|---------------------------------------------------------------------------|
D|22222222-44444444----------------------------------------------------------|

Pre Verse

G|---------------------------------------------------------------------------|
D|---------------------------------------------------------------------------|
A|--------------------------------------------------------------------------|
D|-999-----------------------------------------------------------------------|

Verse x 4

G|---------------------------------------------------------------------------|
D|---------------------------------------------------------------------------|
A|----66/77------------------------------------------------------------------|
D|6666-----99-4444-----------------------------------------------------------|

Pre Chorus x 4

G|---------------------------------------------------------------------------|
D|---------------------------------------------------------------------------|
A|----66/77--9---------------------------------------------------------------|
D|6666-----99-4444-----------------------------------------------------------|

Chorus x 4
[ Tab from: http://www.guitartabs.cc/tabs/s/story_of_the_year/take_me_back_btab.html ]
G|---------------------------------------------------------------------------|
D|---------------------------------------------------------------------------|
A|---------------------------------------------------------------------------|
D|22222222-44444444----------------------------------------------------------|

Bridge Pt 1.

G|---------------------------------------------------------------------------|
D|---------------------------------------------------------------------------|
A|---------------------------------------------------------------------------|
D|-66~-----------------------------------------------------------------------|

Guitar does it's thing

Bridge Pt.2 x 4

G|--------------------------------------------------------------------------------|
D|--------------------------------------------------------------------------------|
A|--6h7---------------------------------------------------------------------------|
D|66---9/8-6/4--------------------------------------------------------------------|

Pre-Solo

G|---------------------------------------------------------------------------|
D|---------------------------------------------------------------------------|
A|---------------------------------------------------------------------------|
D|2222222222222222-66666666-44444444-22222222-44444444-6---------------------|

Solo x4

G|---------------------------------------------------------------------------|
D|---------------------------------------------------------------------------|
A|---------------------------------------------------------------------------|
D|22222222-44444444----------------------------------------------------------|

Alternate Chorus x4

G|---------------------------------------------------------------------------|
D|---------------------------------------------------------------------------|
A|----------------------------------22222222---------------------------------|
D|2222222222222222-44444444-66666666-----------------------------------------|

2nd Alternate Chorus x2

G|---------------------------------------------------------------------------|
D|---------------------------------------------------------------------------|
A|---------------------------------------------------------------------------|
D|2222222222222222-44444444-66666666-44444444--------------------------------|

Outro

G|---------------------------------------------------------------------------|
D|---------------------------------------------------------------------------|
A|---------------------------------------------------------------------------|
D|2-4-6-4-2-4-6-4-2----------------------------------------------------------|

| /  slide up
| \  slide down
| h  hammer-on
| p  pull-off
| ~  vibrato
| +  harmonic
| x  Mute note
===============================================================================