Story Of The Year - Swallow The Knife Chords & Tabs

 

Swallow The Knife Chords & Tabs

Story Of The Year Chords & Tabs

Version: 2 Type: Tab 0 ratings
1 star 2 stars 3 stars 4 stars 5 stars
comments

Swallow The Knife Tab

   
Story of the Year
Swallow the Knife Segue
Live in the Lou
  
E|---------|---------|---------|---------|
B|---------|---------|---------|---------|
G|------8--|------8--|------6--|---------|
D|----6----|----6----|----6----|----6----|
A|--4------|--4------|--4------|--4------|
D|---------|---------|---------|---------|

E|-------------------------|-------------------------|
B|-------------------------|-------------------------|
G|-8-8-8-8-8-8-8-8-8-8-8-8-|-8-8-8-8-8-8-8-8-8-8-8-8-|
D|-6-6-6-6-6-6-6-6-6-6-6-6-|-6-6-6-6-6-6-6-6-6-6-6-6-|  x3
A|-4-4-4-4-4-4-4-4-4-4-4-4-|-4-4-4-4-4-4-4-4-4-4-4-4-|
D|-------------------------|-------------------------|
[ Tab from: http://www.guitartabs.cc/tabs/s/story_of_the_year/swallow_the_knife_tab_ver_2.html ]
E|-------0-----|-------0-----|---------0-------|-----------|
B|-----7-----7-|-----7-----7-|------12---12----|-----7-----|
G|---9-----8---|---9-----9---|---11---------11-|---8---8---|
D|-9-----------|-9-----------|-9---------------|-9-------9-|
A|-------------|-------------|-----------------|-----------|
D|-------------|-------------|-----------------|-----------|

E|-------------------------|
B|-------------------------|
G|-8-8-8-8-8-8-8-8-8-8-8-8-|
D|-6-6-6-6-6-6-6-6-6-6-6-6-|  x3
A|-4-4-4-4-4-4-4-4-4-4-4-4-|
D|-------------------------|

E|-------0-----|-0-----0-----|-------0-----|-------|
B|-----7-----7-|---7-----7---|-----7---7---|-----7-|
G|---8-----8---|-----8-----8-|---8-------8-|---8---|
D|-9-----------|-------------|-9-----------|-9-----|
A|-------------|-------------|-------------|-------|
D|-------------|-------------|-------------|-------|

E|----------|----------|----------|----------|-----------------|
B|----------|----------|----------|----------|---7---7---7---7-|
G|----------|----------|----------|----------|-9---9---9---9---|
D|----13----|----13----|----13----|----13----|-----------------|
A|----11----|----11----|----11----|----11----|-----------------|
D|----11----|----11----|----11----|----11----|-----------------|
Comments