Story Of The Year - Sidewalks Chords & Tabs

 

Sidewalks Chords & Tabs

Story Of The Year Chords & Tabs

Version: 6 Type: Tab 0 ratings
1 star 2 stars 3 stars 4 stars 5 stars
comments

Sidewalks Tab

hey it's Mike from version 2
I was looking at it and I realized that I missed a part
so I am going to call this part the solo
it comes in after Dan sings "away"
listen for the correct timing
sorry, good luck, and enjoy

Story of the Year - Sidewalks - solo - ultimate guitar
[ Tab from: http://www.guitartabs.cc/tabs/s/story_of_the_year/sidewalks_tab_ver_6.html ]
E---------------------------------16--19------------------16-|
B---------17--16----------16--17----------16--16-------------|
G-----18----------16--18--------------------------18--16-----|
D------------------------------------------------------------|
A------------------------------------------------------------|
E------------------------------------------------------------|

E-----19--16--19--21--19--16------16-----------------------------|
B-----------------------------19------17--17--16--16-------------|
G-----------------------------------------------------18--18--16-|
D----------------------------------------------------------------|
A----------------------------------------------------------------|
E----------------------------------------------------------------|
Comments