Story Of The Year - Sidewalks Chords & Tabs

 

Sidewalks Chords & Tabs

Story Of The Year Chords & Tabs

Version: 5 Type: Tab 0 ratings
1 star 2 stars 3 stars 4 stars 5 stars
comments

Sidewalks Tab

Band: Story of the Year
Album: Page Avenue
Song: Sidewalks
Tuning: Normal
http://www.ultimate-guitar.com
tabbed by Mike


Intro x4
(acoustic)

E-----------------0-----------|
B-------------0-----0---0-----|
G---------8-----8-----8-----8-|
D-------6---6-------------6---|
A-----4-----------------------|
E-----------------------------|

Verse x4
(acoustic)

E-----0000000000-000000000-00000000000000000000-|
B-----0000000000-000000000-00000000000000000000-|
G-----2222222222-444444444-66666666666666666666-|
D-----2222222222-444444444-66666666666666666666-|
A-----0000000000-222222222-44444444444444444444-|
E-----xxxxxxxxxx-xxxxxxxxx-xxxxxxxxxxxxxxxxxxxx-|

Chorus x2
(acoustic)

E-----0000000000-0000000000-0000000000-0000000000-|
B-----0000000000-0000000000-0000000000-0000000000-|
G-----1111111111-2222222222-1111111111-8888888888-|
D-----2222222222-2222222222-2222222222-6666666666-|
A-----2222222222-0000000000-2222222222-4444444444-|
E-----0000000000-0000000000-0000000000-xxxxxxxxxx-|

Post
(acoustic)

E---------0-----0-----0-----0-|
B-------0-----0-----0-----0---|
G-----8-----8-----8-----8-----|
D-----------------------------|
A-----------------------------|
E-----------------------------|

play intro x2
play verse x4
play chorus x2

Post
(acoustic)

E-----0-----0-----0-----0-----|
B-------0-----0-----0-----0---|
G---------4-----4-----4-----4-|
D-----------------------------|
A-----------------------------|
E-----------------------------|

play intro x4

Bridge x4
(acoustic)
[ Tab from: http://www.guitartabs.cc/tabs/s/story_of_the_year/sidewalks_tab_ver_5.html ]
E-----0000000000-0000000000-00000000000000000000-|
B-----0000000000-0000000000-00000000000000000000-|
G-----6666666666-4444444444-22222222222222222222-|
D-----6666666666-4444444444-22222222222222222222-|
A-----4444444444-2222222222-00000000000000000000-|
E-----xxxxxxxxxx-xxxxxxxxxx-xxxxxxxxxxxxxxxxxxxx-|
after Dan sings "away"

Bridge
(piano)

E-----------------------------------------------|
B----17-----------------------------9---------7-|
G-------9---------------------------9---------8-|
D-------6---------------------------6---------4-|
A---------7-------------------------4---------2-|
E----0------------------------------------------|
sidewalks, runining away from the streets we knew

Chorus x4
Intro x8


Electric Guitar Verse 2

E-0--0--0--0--0--0--12-12-12-11-11-11-12-12-12-11-11-11-12-12-12-11-|
B-12-12-12-12-12-12-0--0--0--0--0--0--0--0--0--0--0--0--0--0--0--0--|
G-9--9--9--9--9--9--9--9--9--8--8--8--9--9--9--8--8--8--9--9--9--8--|
D-------------------------------------------------------------------|
A-------------------------------------------------------------------|
E-------------------------------------------------------------------|
  "by eighteen blue, twenty-one grey"

Electric Guitar Ending-Chorus x2

E-----------------------------------------------------|
B-----------------------------------------------------|
G-----9-9-9-9-9-9-9-9-----------------9-9-9-9-9-9-9-9-|
D-----9-9-9-9-9-9-9-9-7-7-7-7-7-7-7-7-9-9-9-9-9-9-9-9-|
A-----7-7-7-7-7-7-7-7-7-7-7-7-7-7-7-7-7-7-7-7-7-7-7-7-|
E---------------------5-5-5-5-5-5-5-5-----------------|

Electric Guitar Before Acoustic Outro

E-----------------------------------------------------|
B-----------------------------------------------------|
G-----------------------------------------------------|
D-----7-7-7-7-7-7-7-7-7-7-7-7-7-7-7-7-7-7-7-7-7-7-7-7-|
A-----7-7-7-7-7-7-7-7-7-7-7-7-7-7-7-7-7-7-7-7-7-7-7-7-|
E-----5-5-5-5-5-5-5-5-5-5-5-5-5-5-5-5-5-5-5-5-5-5-5-5-|

story of the year is my favorite rock band
they have some killer guitar songs and hard chords
this is probaly the easiest of their songs
good luck and I hope you enjoy
Comments