Story Of The Year - Sidewalks Chords & Tabs

 

Sidewalks Chords & Tabs

Story Of The Year Chords & Tabs

Version: 2 Type: Tab 0 ratings
1 star 2 stars 3 stars 4 stars 5 stars
comments

Sidewalks Tab

-----------------------------------------------------------------------------
                         Story of the Year - Sidewalks
-----------------------------------------------------------------------------
                                Standard Tuning
                           Submitted by: Thienskater

Intro/Outro
e|-----------------
B|----4---5-4---4--
G|------4-----4----
D|-----------------  x4
A|--4--------------
E|-----------------

Verse
First time on first verse only
  \    /
e|-----|---------
B|-----|---------
G|--6--|--2-4-6--
D|--6--|--2-4-6--  x4
A|--4--|--0-2-4--
E|-----|---------
"The bridges are crumbled..."
"Out on the front porch..."
[ Tab from: http://www.guitartabs.cc/tabs/s/story_of_the_year/sidewalks_tab_ver_2.html ]
Chorus
e|-----------
B|-----------
G|----2---2--
D|--2-2-2-2--  x2
A|--2-0-2-0--
E|--0---0----
"Over the sidewalks..."

Post-Chorus
e|---------
B|---------
G|--5-4----
D|------4--  x4
A|---------
E|---------

Bridge
e|-----------
B|-----------
G|--6-4-2-4--
D|--6-4-2-4--  x2
A|--4-2-0-2--
E|-----------
"All of the days..."

e|---------
B|---------
G|--6-4-0--
D|--6-4-0--  x4
A|--4-2-2--
E|---------
"Away..."

e|-----------
B|-----------
G|----4-6-4--
D|--2-4-6-4--
A|--2-2-4-2--
E|--0--------
"Sidewalks, running away from the streets we knew..."

Intro/Outro
Verse
Chorus
Post-Chorus
Verse
Chorus
Post-Chorus
Bridge
Chorus x2
Intro/Outro
Comments