Story Of The Year - Sidewalks Chords & Tabs

 

Sidewalks Chords & Tabs

Story Of The Year Chords & Tabs

Version: 1 Type: Bass Tab

Sidewalks Bass Tab

   
Tunign : G D A D

INTRO & VERSE 1 - NOTHING 'TIL 0:58

VERSE 2 (4X)
G|-----------------------------------------------------------------------------| 
D|-----------------------------------------------------------------------------| 
A|-----------------------------------------------------------------------------| 
D|-7-7-7-777-9-9-9-999-111111-111111-111111-111111-----------------------------| 

{This 11111 are elevens}

CHORUS (2X)
G|-----------------------------------------------------------------------------| 
D|-----------------------------------------------------------------------------| 
A|-7-7777-7-7777-0-0000-0-0000-7-7777-7-7777-4-4444-4-4444---------------------| 
D|-----------------------------------------------------------------------------| 

CHORUS ENDING
G|-----------------------------------------------------------------------------| 
D|-----------------------------------------------------------------------------| 
A|-0-0000-0-0000-2-2222-2-2222-------------------------------------------------|  
D|-----------------------------------------------------------------------------| 

BRIDGE
G|-----------------------------------------------------------------------------| 
D|-----------------------------------------------------------------------------| 
A|-4-4444-4-4444-6-6666-6-6666-0-0000-0-0000-2-2222-2-2222---------------------|  
D|-----------------------------------------------------------------------------| 
[ Tab from: http://www.guitartabs.cc/tabs/s/story_of_the_year/sidewalks_btab.html ]
G|-----------------------------------------------------------------------------| 
D|-----------------------------------------------------------------------------| 
A|-4-4444-4-4444-6-6666-6-6666-0-0000-0-0000-2 (let it ring until 1:59)--------|   
D|-----------------------------------------------------------------------------| 

BREAK (2:00)
G|-----------------------------------------------------------------------------| 
D|-----------------------------------------------------------------------------| 
A|-444-4-222-2-0000-0000-0000-0000-444-4-222-2-0000-0000-0000-0000-------------|  
D|-----------------------------------------------------------------------------| 

G|-----------------------------------------------------------------------------| 
D|-----------------------------------------------------------------------------| 
A|-44444-7/6--22222-5/4-000-0-000-0--------------------------------------------|  
D|-----------------------------------------------------------------------------| 


G|-----------------------------------------------------------------------------| 
D|-----------------------------------------------------------------------------| 
A|-44444-7/6--22222-5/4-0000--2222-4444-6666-7 (let it ring)-------------------|  
D|-----------------------------------------------------------------------------| 


CHORUS (4X) (2:38)
G|-----------------------------------------------------------------------------| 
D|-----------------------------------------------------------------------------| 
A|-7-7777-7-7777-0-0000-0-0000-7-7777-7-7777-4-4444-4-4444---------------------| 
D|-----------------------------------------------------------------------------| 

CHORUS ENDING
G|-----------------------------------------------------------------------------| 
D|-----------------------------------------------------------------------------| 
A|-000000-222222-000000-222222-4-(let it ring)---------------------------------|  
D|-----------------------------------------------------------------------------|


Thats all kids
Keep on rockin' !