Story Of The Year - Razorblades Chords & Tabs

 

Razorblades Chords & Tabs

Story Of The Year Chords & Tabs

Version: 1 Type: Tab 0 ratings
1 star 2 stars 3 stars 4 stars 5 stars
comments

Razorblades Tab

-----------------------------------------------------------------------------
                        Story of the Year - Razorblades
-----------------------------------------------------------------------------
                          Submitted by: Thienskater

-|----------------------------------------------------------------------------
-|----------------------------------------------------------------------------
-|----------------------------------------------------------------------------
-|------1111111111111111-12-12-12-12-11-11-11-11----------5-5-5-5-5-5-5-5-5-5-
-|-------9-9-9-9-9-9-9-9--9--9--9--9--9--9--9--9----------5-5-5-5-5-5-5-5-5-5-
-|-------7-7-7-7-7-7-7-7--7--7--7--7--7--7--7--7----------3-3-3-3-3-3-3-3-3-3-
  INTRO clean(light dist).......................    Heavy                     

-|----------------------------------------------------------------------------
-|----------------------------------------------------------------------------
-|----------------------------------------------------------------------------
-|------1111111111111111--7-7-7-7-12-12-12-11-11-11---77--5-5-5-5-5-5-5-5-5-5-
-|-------9-9-9-9-9-9-9-9--9-9-9-9--9--9--9--9--9--9---77--5-5-5-5-5-5-5-5-5-5-
-|-------7-7-7-7-7-7-7-7--7-7-7-7--7--7--7--7--7--7---55--3-3-3-3-3-3-3-3-3-3-
     clean......................................... Heavy                     

-|----------------------------------------------------------------------------
-|----------------------------------------------------------------------------
-|----------------------------------------------------------------------------
-|----------------------------------------------------------------------------
-|----------------------------------------------------------------------------
-|----------------------------------------------------------------------------
  VERSE clean  *Same as INTRO*  Just adding something with Gtr.2.......       

-|----------------------------------------------------------------------------
-|----------------------------------------------------------------------------
-|----------------------------------------------------------------------------
-|-------------------5-5-5-5-5-5-5-5-5-5--------------------------------------
-|-------------------5-5-5-5-5-5-5-5-5-5--------------------------------------
-|-------------------3-3-3-3-3-3-3-3-3-3--------------------------------------
    1st time   Heavy                                                          

-|----------------------------------------------------------------------------
-|----------------------------------------------------------------------------
-|----------------------------------------------------------------------------
-|--------------------77--5-5-5-5-5-5-5-5-5-5------------------------x--------
-|--------------------77--5-5-5-5-5-5-5-5-5-5------------------------x--------
-|--------------------55--3-3-3-3-3-3-3-3-3-3------------------------x--------
   2nd time  Heavy                                        then stop           

-|----------------------------------------------------------------------------
-|----------------------------------------------------------------------------
-|---------7-7-7-7-7----------------------------------------------------------
-|---------7-7-7-7-7--7-7-7-7-7---9-9--5-5----9-9--5-5------------------------
-|---------5-5-5-5-5--7-7-7-7-7---9-9--5-5----9-9--5-5------------------------
-|--------------------5-5-5-5-5---7-7--3-3----7-7--3-3------------------------
  CHORUS                                                                      
[ Tab from: http://www.guitartabs.cc/tabs/s/story_of_the_year/razorblades_tab.html ]
-|----------------------------------------------------------------------------
-|----------------------------------------------------------------------------
-|---7--7--7--7-7-7-----------------------------------------------------------
-|---7--7--7--7-7-7--7-7-7-7-7--9-9--5-5----9-9--5-5--------------------------
-|---5--5--5--5-5-5--7-7-7-7-7--9-9--5-5----9-9--5-5--------------------------
-|-------------------5-5-5-5-5--7-7--3-3----7-7--3-3--------------------------
                                                     then back to VERSE 2...  

-|----------------------------------------------------------------------------
-|----------------------------------------------------------------------------
-|-------------7--7--7--7--7--7-7-7-7-7-7-------------------------------------
-|-------------7--7--7--7--7--7-7-7-7-7-7-------------------------------------
-|-------------5--5--5--5--5--5-5-5-5-5-5-------------------------------------
-|----------------------------------------------------------------------------
  INTERLUDE                              let ring.....                        

-|----------------------------------------------------------------------------
-|----------------------------------------------------------------------------
-|-----7-xxx---7--777---------------------------------------------------------
-|-----7-xxx---7--777-----------------------5-5-5-5-5-5-5-5-5-5---------------
-|-----5-xxx---5--555-----------------------5-5-5-5-5-5-5-5-5-5---------------
-|------------------------------------------3-3-3-3-3-3-3-3-3-3---------------
  "go"     or  PM....   repeat 4 times then                      repeat all   

-|----------------------------------------------------------------------------
-|----------------------------------------------------------------------------
-|--7-7-v-v-7-7-v-v--------------------7-7-v-v-7-7-v-v------------------------
-|--7-7-v-v-7-7-v-v--7-7-v-v-7-7-v-v---7-7-v-v-7-7-v-v-7-7-v-v-7-7-v-v--------
-|--5-5-----5-5------7-7-v-v-7-7-v-v---5-5-----5-5-----7-7-v-v-7-7-v-v--------
-|-------------------5-5-----5-5-----------------------5-5-----5-5------------
                                                                              

-|----------------------------------------------------------------------------
-|----------------------------------------------------------------------------
-|--7-------------------------------------------------------------------------
-|--7-------------------------------------------------------------------------
-|--5-------------------------------------------------------------------------
-|----------------------------------------------------------------------------
      let ring through......      then back to chorus                         

-|----------------------------------------------------------------------------
-|----------------------------------------------------------------------------
-|------------7--777----7--777------------------------------------------------
-|------------7--777----7--777-----7-7-7-7-7--9-9--5-5----9-9--5-5------------
-|------------5--555----5--555-----7-7-7-7-7--9-9--5-5----9-9--5-5------------
-|---------------------------------5-5-5-5-5--7-7--3-3----7-7--3-3------------
  BEFORE END  PM....    PM....                                                

-|----------------------------------------------------------------------------
-|----------------------------------------------------------------------------
-|--------------------------------------------7-xxx-----7--777----------------
-|-------------9-9--5-5----9-9--5-5-----------7-xxx-----7--777----------------
-|-------------9-9--5-5----9-9--5-5-----------5-xxx-----5--555----------------
-|-------------7-7--3-3----7-7--3-3-------------------------------------------
    contiune                            "go"       or   PM....    repeat 3X   

-|----------------------------------------------------------------------------
-|----------------------------------------------------------------------------
-|-----------77-----77-----------------7--------------------------------------
-|--------5--77--5--77--------5--5-----7--------------------------------------
-|--------5--55--5--55--------5--5-----5--------------------------------------
-|--------3------3------------3--3--------------------------------------------
  END                                     let ring.....................
Comments