Story Of The Year - Our Time Is Now Chords & Tabs

 

Our Time Is Now Chords & Tabs

Story Of The Year Chords & Tabs

Version: 1 Type: Tab

Our Time Is Now Tab

E|-----|
B|-----|
G|-----|
D|--X--|
A|--X--|
E|--X--|

E|------------------------------------|
B|------------------------------------|
G|------------------------------------|
D|--------------5-------4p0h4-5-4-----|
A|----5h7-7p5-----7---------------5~--|
E|--0-0-------7------0----------------|

E|-------------------------------------------|
B|--------------------------------------15~--|
G|------------------------------12-----------|
D|---------------5----5------12-----12-------|
A|----5h7-7p5------7-----5/------------------|
E|--0-0-------7------------------------------|

E|------------------------------------|
B|------------------------------------|
G|----------------------4p0-----------|
D|--------------5-----------4-5-4-----|
A|----5h7-7p5-----7---------------5~--|
E|--0-0-------7------0----------------|

E|----------------------------------|
B|----------------------------------|
G|----------------------------------|
D|----------------------------------|
A|----5h7-7p5----5------------------|
E|--0-0-------7-----7--5--3--2--3~--|

E|------------------------------------|
B|------------------------------------|
G|------------------------------------|
D|--------------5-------4p0h4-5-4-----|
A|----5h7-7p5-----7---------------5~--|
E|--0-0-------7------0----------------|

E|----------------------------------------|
B|----------------------------------------|
G|----------------------7-----9------14~--|
D|---------------5----5---5/7---7/12------|
A|----5h7-7p5------7----------------------|
E|--0-0-------7---------------------------|

E|------------------------------------|
B|------------------------------------|
G|----------------------4p0-----------|
D|--------------5-----------4-5-4-----|
A|----5h7-7p5-----7---------------5~--|
E|--0-0-------7------0----------------|

E|----------------------------------|
B|----------------------------------|
G|----------------------------------|
D|----------------------------------|
A|----5h7-7p5----5------------------|
E|--0-0-------7-----7--5--3--2--3~--|

Verse
E|----------------------|
B|-------------<7>------|
G|---------<5>-----<7>--|
D|--22222---------------|
A|--22222---------------|
E|--00000---------------|
pm_______|

Pre-chorus
E|----------------|
B|----------------|
G|---------55555--|
D|--22222--55555--|
A|--22222--33333--|
E|--00000---------|
pm_____|

Chorus
E|---------------------------------------------|
B|---------------------------------------------|
G|--777777777777-------------------------------|
D|--777777777777----------5---------4p0h4-5-4--|
A|--555555555555-x-7-7p5-----7--x-7------------|
E|---------------x-0-----7------x-0------------|

End chorus with
E|-------------------|
B|-------------------|
G|-------------------|
D|-------------------|
A|----7-5h7p5----5b--|
E|--0-0-------7------|

Interlude
E|--0~----2~----3~----5~--|
B|--0~----3~----3~----7~--|
G|--0~----4~----5~----7~--|
D|--2~----4~----5~----7~--|
A|--2~----2~----3~----5~--|
E|--0~--------------------|

Bridge - Gtr 1 3x 4th time
E|--------------------------|---------------------|
B|--------------------------|---------------------|
G|--------------------------|--5~-7---------------|
D|--------------------------|--5~-7---4---5p4-----|
A|--22222---22-2-2---22222--|--3~-5-5---5-----5~--|
E|--00000---00-0-0---00000--|---------------------|
pm_______________________|

Gtr 2 - Synth. arranged for gtr.
E|---------------------------------|
B|--8~-----7~-----8~-----12~--10~--|
G|--9~-----7~-----9~-----12~--11~--|
D|--x------X------x------x----x----|
A|--7~-----5~-----7~-----10~--9~---|
E|---------------------------------|
[ Tab from: http://www.guitartabs.cc/tabs/s/story_of_the_year/our_time_is_now_tab.html ]
Bridge - part 2 2x
E|----------------------------------------------------|
B|----------------------------------------------------|
G|-------------------------------4~-------4~------4~--|
D|------2~-------2~------2~------4~-------4~------4~--|
A|------2~-------2~------2~--22222~--22-2-2~--222-2~--|
E|--00000~--00-0-0~--000-0~---------------------------|

E|----------------------------------------------------|
B|----------------------------------------------------|
G|------5~-------5~------5~------7~-------7~------7~--|
D|------5~-------5~------5~------7~-------7~------7~--|
A|--33333~--33-3-3~--333-3~--55555~--55-5-5~--555-5~--|
E|----------------------------------------------------|

Lead backround part (im having a bit of trouble hearing
what exactly he does at this part but it could be something
like this. it sounds pretty good to me)
E|------------------------------------------------------------------------|
B|------------------------------------------------------------------------|
G|------------------------------------------------------------------------|
D|--7h9~--9~--9b--7h9~--9~--9b--10-9----12-10-9-10-9----12-10-9-10-9------|
A|-----------------------------------10--------------10--------------10~--|
E|------------------------------------------------------------------------|

E|-------------------------------------10///-13~--|
B|-------------------10///-12///-13///------------|
G|--9///-11///-12///------------------------------|
D|------------------------------------------------|
A|------------------------------------------------|
E|------------------------------------------------|

Brige - part 3 - Gtr 1 2x
E|--------------------------------------------------------|
B|--------------------------------------------------------|
G|--------------------------------------------------------|
D|--7p5------7p5------7p5-----7p5------7p5-------7p5------|
A|------7p5------7p5------7p5-----7p5------7p5-------7p5--|
E|--------------------------------------------------------|

E|-----------------------|
B|-----------------------|
G|--5555-55--------7777--|
D|--5555-55--5555--7777--|
A|--3333-33--5555--5555--|
E|-----------3333--------|

Gtr 2 1x
E|--------------------------------------------------------|
B|--------------------------------------------------------|
G|--------------------------------------------------------|
D|--7p5------7p5------7p5-----7p5------7p5-------7p5------|
A|------7p5------7p5------7p5-----7p5------7p5-------7p5--|
E|--------------------------------------------------------|

Gtr 2 comes in with a harmony 1x
E|--------------------------------------------------------|
B|--------------------------------------------------------|
G|--5p4------5p4------5p4-----5p4------5p4------5p4-------|
D|------5p4------5p4------5p4-----5p4------5p4-------5p4--|
A|--------------------------------------------------------|
E|--------------------------------------------------------|

E|-----------------------|
B|-----------------------|
G|--5555-55--------7777--|
D|--5555-55--5555--7777--|
A|--3333-33--5555--5555--|
E|-----------3333--------| Fill
E|------|
B|------|
G|--5~--|
D|--5~--|
A|--3~--|
E|------|

Solo
E|--X/--------------------------15p12-----------------------|
B|--X/--7-7--7-7--7-7--7-7--7-7------15-12-15b-15b-15b------|
G|------5b5b-5b5b-5b5b-5b5b-5b5b-----------------------14~--|
D|----------------------------------------------------------|
A|----------------------------------------------------------|
E|----------------------------------------------------------|

E|--12--14--15--17--17--22p19----22-22b--|
B|--15b-17b-18b-20b-20b-------22---------|
G|---------------------------------------|
D|---------------------------------------|
A|---------------------------------------|
E|---------------------------------------|