Story Of The Year - Is This My Fate He Asked Them Chords & Tabs

 

Is This My Fate He Asked Them Chords & Tabs

Story Of The Year Chords & Tabs

Version: 2 Type: Tab

Is This My Fate He Asked Them Tab

   
-------------------------------------------------------------------------------
			    Is This My Fate? He Asked Them- Story Of The Year
-------------------------------------------------------------------------------
Tabbed by: christie
Email: cls72589@aol.com

Tuning: Eb-Ab-Db-Gb-Bb-Eb

guitar 1
e|-------------------------------------------------------------------|
B|-------------------------------------------------------------------|
G|-------------------------------------------------------------------|
D|-------------------------------------------------------------------|
A|-----5h7-----5h7-----5--5h7-----5h7-----5--5h7-----5h7-------------|
E|---0------0-------0----------0-------0----------0-------00-5-4-3-2-|

e|--------------------------------------------------------------------------|
B|--------------------------------------------------------------------------|
G|--------------------------------------------------------------------------|
D|-2-222-222-222-222-22-5h4--22-------222-222-22-5h4-22--5h4-22--5h4-22-5/7-|
A|-2-222-222-222-222-22----5-22-------222-222-22-----22------22------22-3/5-|
E|-0-000-000-000-000-00------00--787--000-000-00-----00------00------00-----|

e|---------------------------------------------------------|
B|---------------------------------------------------------|
G|---------------------------------------------------------|
D|-222-222-22-5h4--22--5h4--22--5h4--7-6-5-4---------------|
A|-222-222-22----5-22-----5-22-------5-4-3-2---------------|
E|-000-000-00------00-------00-----------------------------|


guitar 2
e|-------------------------------------------------------------------|
B|-------------------------------------------------------------------|
G|-------------------------------------------------------------------|
D|-----------------------5h7----5h7------7--7h9----7h9---------------|
A|-----5h7-----5h7-----5---------------------------------------------|
E|---0------0-------0---------0-------0----------0-------00-5-4-3-2--|
then i think its the same as guitar 1

verse=intro

e|----------------------|
B|----------------------|
G|----------------------|
D|--222-222-------------|
A|--222-222-------------| this is ignorance
E|--000-000-------------|

e|-------------------------------------------------------|
B|-------------------------------------------------------|
G|--------777-666--55555--777-999-----------55555-77777--|
D|-22222--xxx-xxx--55555--xxx-xxx--2-2-2-2--55555-77777--|   x2
A|-22222--555-444--33333--555-777--2-2-2-2--33333-55555--|
E|-00000---------------------------0-0-0-0---------------|

after second time

e|-------------------------------------------|
B|-------------------------------------------|
G|---5---------------------------------------|
D|---5-----------2-2-2-----------------------|
A|---3-----------2-2-2-----------------------|
E|---------------0-0-0----14\----------------|
[ Tab from: http://www.guitartabs.cc/tabs/s/story_of_the_year/is_this_my_fate_he_asked_them_tab_ver_2.html ]
e|-----------------------------------------------------------------------|
B|-----------------------------------------------------------------------|
G|----7/9--7/9-----------------------------------------------------------|
D|-2--x/x--x/x--222-2--x7------------------------------------------------|
A|-2--5/7--5/7--222-2----------------------------------------------------|
E|-0------------000-0--------5-4-3-2-------------------------------------|

repeat intro
chorus

after chorus
e|-----------------------------------------------------------|
B|-----------------------------------------------------------|
G|--5--555555-7--777777--------------------------------------|
D|--5--555555-7--777777---2----------------------------------|
A|--3--333333-5--555555---2----------------------------------|
E|------------------------0----------------------------------|
       ......    ......

e|----------------------------------------------------|
B|--3h5--5/7--3--8--7---3h5--7--8--11-----------------|
G|----------------------------------------------------|
D|----------------------------------------------------|
A|----------------------------------------------------|
E|----------------------------------------------------|


e|------------------------------------------------------------------------|
B|------------------------------------------------------------------------|
G|------------------------------------------------------------------------|
D|-2-222-222-222-222-222-222-222-222-222-222-222-22--55-222-7-222-7-------|
A|-2-222-222-222-222-222-222-222-222-222-222-222-22--33-222-5-222-5-------|
E|-0-000-000-000-000-000-000-000-000-000-000-000-00-----000---000---------|

e|-------------------------------------------------------------|
B|-------------------------------------------------------------|
G|----------------------------------------------------7--------|
D|-2--5p4p0-4p2p0-5p4p0-4p2p0---5-4-2--x6--2-2-2-2----x--------|
A|-2----------------------------5-4-2------2-2-2-2----5--------|
E|-0----------------------------3-2-0------0-0-0-0-------------|


guitar1
e|-------------------------------------------------------------|
B|-------------------------------------------------------------|
G|-------------------------------------------------------------|
D|-2-5425---5424-4202-2--5425---5424------x4-----2-------------|
A|-2------------------2--------------25----------2-------------|
E|-0------0-----------0-------0------------------0-------------|

guitar 2

e|-------------------22b-------------------------------|
B|--17---19--20--22------------------------------------|
G|-----------------------------------------------------|
D|-----------------------------------------------------|
A|--^^tremolo^^^^^^------------------------------------|
E|-----------------------------------------------------|


i think thats it. i did the best i could. please send any corrections or comments to cls72589@aol.com


| /  slide up
| \  slide down
| h  hammer-on
| p  pull-off
| ~  vibrato
| +  harmonic
| x  Mute note
===============================================================================