Story Of The Year - In The Shadows Chords & Tabs

 

In The Shadows Chords & Tabs

Story Of The Year Chords & Tabs

Version: 1 Type: Bass Tab 0 ratings
1 star 2 stars 3 stars 4 stars 5 stars
comments

In The Shadows Bass Tab

   
SONG:In The Shadows
BAND:Story Of The Year
BASSIST:Adam Russell
TABBER:J Dizzle
DROP D TUNING

*clean guitar part here*

WHERE ADAM STARTS
G|-----------------------------------------------------|
D|-----------------------------------------------------|
A|-----------------------------------------------------|
D|-10-10-10-0000-10-10-10-00-10-10-10-0000-10-10-10-10-|

VERSE
G|----------------------------|
D|----------------------------|
A|-----------------3-3--------| X4
D|-2-2-2-0-0-0-2-2-----5-5-0--|

PRE CHORUS
G|--------------------------------|
D|--------------------------------|
A|-3333333-3333333-3333333-333----|
D|----------------------------000-|

CHORUS
G|-------------------------------------------------------------|
D|-------------------------------------------------------------|
A|-------------------------------------------------------------|
D|-2-222222-0-000000-10-10-10-10-10-10-10-10-10-10-10-10-10-10-|
That times 4, but when he finishes the second time he does something like so?
[ Tab from: http://www.guitartabs.cc/tabs/s/story_of_the_year/in_the_shadows_btab.html ]
G|---------------------------------------------------------|
D|---------------------------------------------------------|
A|---------------------------------------------------------|
D|*10th fret part goes here*-12-12-12-14-14-14-14-14-14-14-|

G|--------------------------|
D|--------------------------|
A|--------------------------|
D|5-5-5-5-0-5-0-5-0-7-7-7-7-|

VERSE
CHORUS

Bridge
|-----------------------------------------|
|-----------------------------------------|
|-----------------------------------------|
|2~~~~~~~\-10~~~~~~~10/-2~~~~~~~ 10~~~~~~~|

(band kicks in)
|----------------------|
|--------12-\-14~~~-/--|
|----10----------------|
|-10-------------------|    2x

|------------|
|--12\14/12--|
|------------|
|------------|

|----------------------|
|--------12-\-14~~~-/--|
|----10----------------|
|-10-------------------| 

|---------|--------|------------------------|
|---------|--------|------------------------|
|-10-9----|--------|--3----3-33333333333333-|
|------12-|--5-4-0-|------------------------|


AFTER THE VOICE SOLO(Whoa! In the shadows of our lives...)
G|----------------|
D|----------------|
A|----------------|
D|-2--2----0--0---|

CHORUS
OUTRO SAME AS CHORUS
Comments