Story Of The Year - Five Against The World Chords & Tabs

 

Five Against The World Chords & Tabs

Story Of The Year Chords & Tabs

Version: 2 Type: Tab

Five Against The World Tab

   
-------------------------------------------------------------------------------
			     Five against the world - Story of the year Name
-------------------------------------------------------------------------------
Tabbed by:James s
Email:Fire2472003@hotmail.com

I noticed there wasnt much up for story of years new stuff so i tabbed this.

Im pretty sure this is almost 100% correct so if u finnk u can play it go ahead :D Jamesx

Tuning:Standard

e|-------6------3h2---------------------------4h6-------------11-------------|
B|--------------------4----------------4/6--------------11b---------b11------|
G|--5----------------------3----3h5------------------------------------------|
D|---------------------------------------------------------------------------|
A|---------------------------------------------------------------------------|
E|---------------------------------------------------------------------------|

e|----4h3-------4h3------4h3------4h3--------------6------6-------6------6---|
B|---------4---------4---------4--------4\----4h6----4h6-----4h6----4h6------|
G|---------------------------------------------------------------------------|
D|---------------------------------------------------------------------------|
A|---------------------------------------------------------------------------|
E|---------------------------------------------------------------------------|

e|---------------------------------------------------------------------------|
B|---------------------------------------------------------------------------|
G|--------------------------------13h12h13h12----15h13h15h13----17h15h17h15--|
D|-----------------15h13h15h13-----------------------------------------------|
A|--15h13h15h13--------------------------------------------------------------|
E|---------------------------------------------------------------------------|
[ Tab from: http://www.guitartabs.cc/tabs/s/story_of_the_year/five_against_the_world_tab_ver_2.html ]
e|---------------------18b-18b------15h18h15---18-18b----15h18h15--18-18b----|
B|----18h16h18h16------------------------------------------------------------|
G|---------------------------------------------------------------------------|
D|---------------------------------------------------------------------------|
A|---------------------------------------------------------------------------|
E|---------------------------------------------------------------------------|

e|----15h181h15---18---18b-18b--18h17h15-------------------------------------|
B|-----------------------------------------18~-------------------------------|
G|---------------------------------------------------------------------------|
D|---------------------------------------------------------------------------|
A|---------------------------------------------------------------------------|
E|---------------------------------------------------------------------------|

e|----4h3---------4h3-------3h4-4/6--8---------------------------------------|
B|----------4----------4-----------------------------------------------------|
G|---------------------------------------------------------------------------|
D|---------------------------------------------------------------------------|
A|---------------------------------------------------------------------------|
E|---------------------------------------------------------------------------|

e|--18h15-------------------18h15---------------------18h15------------------|
B|---------18h15--------------------18h15--------------------18h15-----------|
G|------------------17h15--------------------17h15-------------------17h15---|
D|---------------------------------------------------------------------------|
A|---------------------------------------------------------------------------|
E|---------------------------------------------------------------------------|

e|---------------------------------------------------------------------------|
B|-------------18~-----------------------------------------------------------|
G|----17---------------------------------------------------------------------|
D|---------------------------------------------------------------------------|
A|---------------------------------------------------------------------------|
E|---------------------------------------------------------------------------|
  
  12b  bend up
  b12  bend down/release bend
| /  slide up
| \  slide down
| h  hammer-on
| p  pull-off
| ~  vibrato
|