Story Of The Year - Falling Down Chords & Tabs

 

Falling Down Chords & Tabs

Story Of The Year Chords & Tabs

Version: 3 Type: Tab 0 ratings
1 star 2 stars 3 stars 4 stars 5 stars
comments

Falling Down Tab

   
-------------------------------------------------------------------			     
FALLING DOWN - Story Of The Year
-------------------------------------------------------------------
Tabbed by: Nick Manning
Email: Shibby6991@hotmail.com

Tuning:DADGBE





Intro:
e|--------------------------------|
B|--------------------------------|
G|---7~~----9~~-------------------|
D|---7~~----0~~-------------------|
A|---0~~----7~~-----888888--10----|
D|---0~~----0~~-----888888--10----|
                    ......


Verse 1A:
e|----------------------------------------|
B|----------------------------------------|
G|--------10101010--10101010--12121212----|
D|--0000--10101010--10101010--12121212----| x4
A|--0000--8-8-8-8---8-8-8-8---10101010----|
D|--0000--8-8-8-8---8-8-8-8---10101010----|


                         "I can't forget.."

Verse 1B:
e|----------------------------------------|
B|----------------------------------------|
G|--------10101010--10101010--9999--------|
D|--0000--10101010--10101010--7777--------|
A|--0000--8-8-8-8---8-8-8-8---7777--------|
D|--0000--8-8-8-8---8-8-8-8---7777--------|

e|----------------------------------------|
B|----------------------------------------|
G|--------10101010--10101010--12121212----|
D|--0000--10101010--10101010--12121212----|  x2
A|--0000--8-8-8-8---8-8-8-8---10101010----|
D|--0000--8-8-8-8---8-8-8-8---10101010----|


Chorus:
"I stand alone.."
e|----------------------------------------|
B|----------------------------------------|
G|--7777-9999-10101010-12121212-----------|
D|--7777-xxxx-x-x-x-x--x-x-x-x------------|
A|--5555-7777-8-8-8-8--10101010-----------|
D|----------------------------------------|
"I'm on my own.."
e|----------------------------------------|
B|----------------------------------------|
G|--5555-9999-10101010-12121212-----------|
D|--5555-xxxx-x-x-x-x--x-x-x-x------------|
A|--3333-7777-8-8-8-8--10101010-----------|
D|----------------------------------------|

"My    hands   will    bleeeed"
e|--------------------------------------------------|
B|--------------------------------------------------|
G|--------------------------10101010------9999------|
D|--77777777-77777777--0000-x-x-x-x--0000-xxxx------| x2
A|--77777777-77777777--0000-8-8-8-8--0000-7777------|
D|--77777777-77777777--0000----------0000-----------|
                       ....          ....
^^^
ON THE END OF THE 2 TIME AROUND PLAY THIS INSTEAD OF WHATS ABOVE:

e|--------------------------------|
B|--------------------------------|
G|----------------------------7~--|
D|--0000-0000--10-10-10-12----7~--|
A|--0000-0000--10-10-10-12----0~--|
D|--0000-0000--10-10-10-12----0~--|
    .... ....

Verse 2:
There is no guitar in the 2nd verse so play this right before the chorus starts again
e|--------------------------------|
B|--------------------------------|
G|--------------------------------|
D|---8-xxx-10-xxx-----------------|
A|---8-xxx-10-xxx-----------------|
D|---8-xxx-10-xxx-----------------|

[ Tab from: http://www.guitartabs.cc/tabs/s/story_of_the_year/falling_down_tab_ver_3.html ]
Chorus:
"I stand alone.."
e|----------------------------------------|
B|----------------------------------------|
G|--7777-9999-10101010-12121212-----------|
D|--7777-xxxx-x-x-x-x--x-x-x-x------------|
A|--5555-7777-8-8-8-8--10101010-----------|
D|----------------------------------------|
"I'm on my own.."
e|----------------------------------------|
B|----------------------------------------|
G|--5555-9999-10101010-12121212-----------|
D|--5555-xxxx-x-x-x-x--x-x-x-x------------|
A|--3333-7777-8-8-8-8--10101010-----------|
D|----------------------------------------|

"My    hands   will    bleeeed"
e|--------------------------------------------------------|
B|--------------------------------------------------------|
G|--------------------------10/9-10/9-------10/9-10/9-----|
D|--77777777-77777777--0000-x-/x-x-/x--0000-x-/x-x-/x-----| x2
A|--77777777-77777777--0000-8-/7-8-/7--0000-8-/7-8-/7-----|
D|--77777777-77777777--0000------------0000---------------|
                       ....            ....

Bridge:
e|------------------------------------------|
B|------------------------------------------|
G|------------------------------------------|
D|--0000-8--0000-8--0000-8----3333333-00----| x3
A|--0000-8--0000-8--0000-8----3333333-00----|
D|--0000-8--0000-8--0000-8----3333333-00----|
    ....    ....    ....

e|------------------------------------------|
B|------------------------------------------|
G|------------------------------------------|
D|--0000-7777-8888-10101010-----------------| x2
A|--0000-7777-8888-10101010-----------------|
D|--0000-7777-8888-10101010-----------------|


Chorus:
"I stand alone.."
e|----------------------------------------|
B|----------------------------------------|
G|--7777-9999-10101010-12121212-----------|
D|--7777-xxxx-x-x-x-x--x-x-x-x------------|
A|--5555-7777-8-8-8-8--10101010-----------|
D|----------------------------------------|
"I'm on my own.."
e|----------------------------------------|
B|----------------------------------------|
G|--5555-9999-10101010-12121212-----------|
D|--5555-xxxx-x-x-x-x--x-x-x-x------------|
A|--3333-7777-8-8-8-8--10101010-----------|
D|----------------------------------------|

"My    hands   will    bleeeed"
e|---------------------------------------------|
B|---------------------------------------------|
G|--------------------------10-99-------9------|
D|--77777777-77777777--0000-x--xx--0000-x------| x2
A|--77777777-77777777--0000-8--77--0000-7------|
D|--77777777-77777777--0000--------0000--------|
                       ....        ....

^^^
ON THE END OF THE 2 TIME AROUND PLAY THIS INSTEAD OF WHATS ABOVE:

e|--------------------------------|
B|--------------------------------|
G|--7-7-7-7-------------7~--------|
D|--7-7-7-7-00000000000-7~--------|
A|--0-0-0-0-00000000000-0~--------|
D|--0-0-0-0-00000000000-0~--------|
            ...........


Outro:
e|--------------------------------|
B|--------------------------------|
G|--7---------------7-9-7-3-3-7---|
D|--x-000-0-0-0-000-x-x-x-x-x-x---| x3
A|--5-000-0-0-0-000-5-7-5-1-1-5---|
D|----000-0-0-0-000---------------|
      ... . . . ...

e|--------------------------------|
B|--------------------------------|
G|--7---------------7-7-7-3-------|
D|--x-000-0-0-0-000-7-7-7-3-------|
A|--5-000-0-0-0-000-5-5-5-1-------|
D|----000-0-0-0-000---------------|
      ... . . . ...


| /  slide up
| \  slide down
| h  hammer-on
| p  pull-off
| ~  vibrato
| +  harmonic
| x  Mute note
==================================================================
Comments