Story Of The Year - Divide And Conquer Chords & Tabs

 

Divide And Conquer Chords & Tabs

Story Of The Year Chords & Tabs

Version: 1 Type: Bass Tab 0 ratings
1 star 2 stars 3 stars 4 stars 5 stars
comments

Divide And Conquer Bass Tab

awesome song awesomeer group enjoy...


intro:x1
G|-------------------------------------|
D|-------------------------------------|
A|-------------------------------------|
D|-0~(x8sapcedout)----------0000-------|

verse 1:x4
G|-------------------------------------|
D|-------------------------------------|
A|-------------------------------------|
D|-0000-0000---------------------------|

pre-chorus 1:
G|-------------------------------------|
D|---8~---10----------------101010-----|
A|-------------------------------------|
D|-------------------------------------|

chorus 1:x2
G|-------------------------------------|
D|-------------------------------------|
A|-555555--333333--111111--------------|
D|-------------------------------------|

verse 2:x4
G|-------------------------------------|
D|-------------------------------------|
A|-------------------------------------|
D|-0000-0000---------------------------|

pre-chorus 2:
G|-------------------------------------|
D|---8~--------------101010------------|
A|-------------------------------------|
D|-------------------------------------|
[ Tab from: http://www.guitartabs.cc/tabs/s/story_of_the_year/divide_and_conquer_btab.html ]
chorus 2:x4
G|-------------------------------------|
D|-------------------------------------|
A|-555555--333333--111111--------------|
D|-------------------------------------|

musical interlude:
G|-------------------------------------|
D|-----------8888-----------8888-8888--|
A|-------------------------------------|
D|-00-00-00-------00-00-00-------------|

bridge 1:x4
G|-------------------------------------|
D|-------------------------------------|
A|-555555--333333--111111--------------|
D|-------------------------------------|

G|-------------------------------------|
D|---8~---10----------------101010-----|
A|-------------------------------------|
D|-------------------------------------|

chorus 3:x4
G|-------------------------------------|
D|-------------------------------------|
A|-555555--333333--111111--------------|
D|-------------------------------------|

ending 1:
G|-------------------------------------|
D|-------------------------------------|
A|-------------------------------------|
D|0000-0000-0000-888-0000-0000-0000----|

G|-------------------------------------|
D|-----------------------7*------------|
A|-------------------------------------|
D|-888-0000-0000-0000------------------|
Comments