Story Of The Year - Anthem Of Our Dying Day Chords & Tabs

 

Anthem Of Our Dying Day Chords & Tabs

Story Of The Year Chords & Tabs

Version: 3 Type: Tab 0 ratings
1 star 2 stars 3 stars 4 stars 5 stars
comments

Anthem Of Our Dying Day Tab

   
Song: Anthem of our dying day
Artist: Story of the year
Tuning: Standard

this should be pretty accurate and fairily easy to play... listen to the song for strumming

intro/first verse
1----------------------------------------------------|
2----------------------------------------------------|
3----------------------------------------------------|
4--7-7-7-7-7-7-7-7--11-11-11-11---9-9-9-9------------|
5--4-4-4-4-4-4-4-4--9--9--9--9----7-7-7-7------------|
6----------------------------------------------------| x6
(singing starts after second time playing the above)

"that's exactly..."
pre-chorus
1-----------------|
2-----------------|
3-----------------|
4---0-0-0-0-0-0---|
5---0-0-0-0-0-0---|
6-----------------|

chorus: "...need. from up here...."
   A   E   F#m C#m  D
1----------------------|
2--2-----------5---7---|
3--2---1---2---6---7---|
4--2---2---4---6---7---|
5------2---4---4---5---|
6----------2-----------|

end chorus:
1------------|
2------------|
3------------|
4------------|
5--4--4--4---|
6--2--2--2---|

verse 2:
"i wish the tide..."
1-------|-------------------|
2-------|-------------------|
3--11b9-|-------------------|
4-------|------------7------|
5-------|---------7-----7---|
6-------|-------7---7-------| x4

"as you gasp..."
1----------------|
2----------------|
3----------------|
4--0-0-0-0-0-0---|
5--0-0-0-0-0-0---|
6----------------|
[ Tab from: http://www.guitartabs.cc/tabs/s/story_of_the_year/anthem_of_our_dying_day_tab_ver_3.html ]
"I'd scream this song..."              "if you were here..."
1-----------------------|-----------------------------------------------|
2-----------------------|-----------------------------------------------|
3-----------------------|-----------------------------------------------|
4------------7----------|--------------------0-0-0-0-0-0----------------|
5---------7-----7-------|--------------------0-0-0-0-0-0----------------|
6-------7---7-----------|-----------------------------------------------| x2

chorus: "from up here...."
   A   E   F#m C#m  D
1----------------------|
2--2-----------5---7---|
3--2---1---2---6---7---|
4--2---2---4---6---7---|
5------2---4---4---5---|
6----------2-----------|

bridge:
1--------------------------------------------------|
2--------------------------------------------------|
3-----------------------------------7-7-7----------|
4----4--4--4--4--4------4-4-4-4-----7-7-7----------|
5----4--4--4--4--4------2-2-2-2-----5-5-5----------|
6----2--2--2--2--2------2-2-2-2--------------------|x4
"of our dying..... day..." OF OUR DYIIIIING...."

"as you gasp...."
1-----------------------|
2-----------------------|
3-----------------------|
4---0-0-0-0-0-0---------|
5---0-0-0-0-0-0---------|
6-----------------------|

chorus: "from up here...."
   A   E   F#m C#m  D
1----------------------|
2--2-----------5---7---|
3--2---1---2---6---7---|
4--2---2---4---6---7---|
5------2---4---4---5---|
6----------2-----------| x3

end chorus:
1-----------------------------------------------|
2-----------------------------------------------|
3---------------------7-7-7-7-7-7-7-7-----------|
4---4-4-4---4-4-4-----5-5-5-5-5-5-5-5-----------|
5---4-4-4---2-2-2-----5-5-5-5-5-5-5-5-----------|
6---2-2-2---2-2-2-------------------------------|

chorus:
   A   E   F#m C#m  D
1----------------------|
2--2-----------5---7---|
3--2---1---2---6---7---|
4--2---2---4---6---7---|
5------2---4---4---5---|
6----------2-----------|

end song on A
1---------------|
2------2--------|
3------2--------|
4------2--------|
5---------------|
6---------------|

And there you have it. This song kicks ass and the band rocks. I hope I didn't screw up 
tab to bad, but go easy on me, it's my first try. Make corrections if you like. Rock on. 
Steven.
Comments