Story Of The Year - Anthem Of Our Dying Day Chords & Tabs

 

Anthem Of Our Dying Day Chords & Tabs

Story Of The Year Chords & Tabs

Version: 1 Type: Bass Tab

Anthem Of Our Dying Day Bass Tab

   
tuning: g,d,a,d

Intro
G------------------------------------------
D------------------------------------------
A------------------------------------------
D---4-xxx-4-xxx-4-xxx-4-xxxx---------------

Chorus
G----------------------------------------------------------------------------------------|
D----------------------------------------------------------------------------------------|
A----------------------------------------------------------------------------------------|
D-7-7777-7-7777-7-7777-7-7777-2-2222-2-2222-2-2222-2-2222-4-4444-4-4444-4-4444-4-4444----|

Chorus continued:
G--------------------------------------------------  *Then Play: G----------------------|
D--------------------------------------------------              D----------------------|
A-4-4444-4-4444-5-5555-5-5555----------------------              A----------------------|
D--------------------------------------------------              D--4-4-4-xxxxxx--------|

 1st Verse
G-------------------------------------------------------------------------------------------------|
D-------------------------------------------------------------------------------------------------|
A----------------5-5555-5-5555-5-5555-5-5555-------------5-5555-5-5555-5-5555-5-5555--------------|
D---(PAUSE)----------------------------------44-44-44-44-----------------------------44-44-44-44--|

1st Verse continued:
G----------------------------------------------------------------------------------------|
D----------------------------------------------------------------------------------------|
A---5-5555-5-5555-5-5555-5-5555-------------5-5555-5-5555-5-5555-xxxxxx-xxxxxx-----------|
D-------------------------------44-44-44-44----------------------------------------------|

Chorus
G----------------------------------------------------------------------------------------|
D-------------------------------------------------------------------- -------------------|
A----------------------------------------------------------------------------------------|
D-7-7777-7-7777-7-7777-7-7777-2-2222-2-2222-2-2222-2-2222-4-4444-4-4444-4-4444-4-4444----|
[ Tab from: http://www.guitartabs.cc/tabs/s/story_of_the_year/anthem_of_our_dying_day_btab.html ]
Chorus continued:
G--------------------------------------------------
D--------------------------------------------------
A-4-4444-4-4444-5-5555-5-5555----------------------
D--------------------------------------------------

After Chorus Play:
G----------------------------------------------------------------------------------------|
D----------------------------------------------------------------------------------------|
A------------------55-5-5------------------55-5-5-------------------------55-5-5---------|
D-44-4-44---44-4-4--------44-4-44---44-4-4--------xx-x-x-44-4-44---4-44-4--------4-44-44-|

Continued:
G-------------------------------------------------
D-------------------------------------------------
A-------------x-5-5-5-x-5-5-5-x-5-5-5-x-5-5-5-----
D-xxxx-44-4-4-------------------------------------

2nd Verse
G----------------------------------------------------------------------------------
D----------------------------------------------------------------------------------
A-----------------------------------------------5-x-xx-5-x-xx-5-x-xx-5-x-xx--------
D-(PAUSE)-0-0000-0-0000-0-0000-0-0000--4-4-4-4-------------------------------------

**Guitar Part**

Semi Pre-Chorus
G---------------------------------------------
D---------------------------------------------
A------------------------55-5-5-55-5-5--------
D---4-xxxx-4-xxxx-4-xxxx----------------------

Chorus
G---------------------------------------------------------------------------------------|
D---------------------------------------------------------------------------------------|
A---------------------------------------------------------------------------------------|
D-7-7777-7-7777-7-7777-7-7777-2-2222-2-2222-2-2222-2-2222-4-4444-4-4444-4-4444-4-4444---|

Chorus continued:
G--------------------------------------------------
D--------------------------------------------------
A-4-4444-4-4444-5-5555-5-5555----------------------
D--------------------------------------------------

Outro
G-------------------------------------------------------
D-------------------------------------------------------
A---------------------x-5-5-5-x-5-5-5-x-5-5-5-xxxx------
D---4-4-4--xxxx-4-4-4-----------------------------------