Story Of The Year - And The Hero Will Drown Chords & Tabs

 

And The Hero Will Drown Chords & Tabs

Story Of The Year Chords & Tabs

Version: 3 Type: Tab 0 ratings
1 star 2 stars 3 stars 4 stars 5 stars
comments

And The Hero Will Drown Tab

Band:  Story of the Year
Song:  And the Hero Will Drown
Album: Page Avenue
Guitarist: Ryan Philips
Guitarist: Philip Sneed
Submitted by Michael Chitteden
Submitted on 04/23/05

INTRO

E|---------|---------|---------|---------|---------|---------|---------|
B|----5----|----5----|----7----|----7----|----8----|----8----|----7----|
G|---------|---------|---------|---------|---------|---------|----9----|
D|---------|---------|---------|---------|---------|---------|---------|
A|---------|---------|---------|---------|---------|---------|---------|
D|---------|---------|---------|---------|---------|---------|---------|
          (AMP and PEDAL effects: static, mic fdbk, wah, and tremolo)
E|---------|---12----|---12----|---14----|---14----|---15----|---15----|
B|----7----|---------|---------|---------|---------|---------|---------|
G|----9----|---------|---------|---------|---------|---------|---------|
D|---------|---------|---------|---------|---------|---------|---------|
A|---------|---------|---------|---------|---------|---------|---------|
D|---------|---------|---------|---------|---------|---------|---------|

E|---17----|-------------------|
B|---------|-------------------|
G|---------|-------------------|
D|---------|--2-2-2-2-2-2-2-2--|
A|---------|--2-2-2-2-2-2-2-2--|
D|---------|--0-0-0-0-0-0-0-0--|
              PM-------------

VERSE

E|----------------------------|----------------------------|
B|----------------------------|----------------------------|
G|----------------------------|----------------------------|
D|--3-2-0-2-------------------|--3-2-0-2-------------------|
A|--3-2-0-2-------------------|--3-2-0-2-------------------|
D|--1-0-0-0-------------------|--1-0-0-0-------------------|
        1. The night will come       1. And rip away
        2. Swim in the smoke         2. Hero will drown

E|-------------------------------|---------------------------------|
B|-------------------------------|---------------------------------|
G|-------------------------------|---------------------------------|
D|--3-2-0-2----------------------|--3-2-0-2-2-2-2-2-2-2-2-0-0-0-0--|
A|--3-2-0-2----------------------|--3-2-0-2-2-2-2-2-2-2-2-0-0-0-0--|
D|--1-0-0-0----------------------|--1-0-0-0-0-0-0-0-0-0-0-0-0-0-0--|
        1. Her wings of innocence    through every word we say
        2. Intoxicating beauty       tears everything down

VERSE VARIATION = VERSE 1

E|----------------------------|----------------------------|
B|----------------------------|----------------------------|
G|----------------------------|----------------------------|
D|--3-2-0-2-------------------|--3-2-0-2-------------------|
A|--3-2-0-2-------------------|--3-2-0-2-------------------|
D|--1-0-0-0-------------------|--1-0-0-0-------------------|
        1. Maybe it's time           1. To spit out the core

E|-------------------------------|-------------------------|
B|-------------------------------|-------------------------|
G|-------------------------------|-------------------------|
D|--3-2-0-2----------------------|--3-2-0-2-2-2-2-2-2-2-2--|
A|--3-2-0-2----------------------|--3-2-0-2-2-2-2-2-2-2-2--|
D|--1-0-0-0----------------------|--1-0-0-0-0-0-0-0-0-0-0--|
       1. Of our rotting union     hopefully before

E|-------------------|------------------|
B|-------------------|------------------|
G|-------------------|------------------|
D|--0-0-0-0-0-0-0-5--|--0--0--5--5------|
A|--0-0-0-0-0-0-0-3--|--0--0--3--3------|
D|--0-0-0-0-0-0-0-3--|--0--0--3--3------|
         1. It chokes   us to our senses

VERSE VARIATION = VERSE 2

E|--------------------------------|-------------------------------------|
B|--------------------------------|-------------------------------------|
G|--------------------------------|-------------------------------------|
D|--3-2-0-2--2-2-2-2-2-2-2-2-2-2--|--3-2-0-2----0---2------2---0---2----|
A|--3-2-0-2--2-2-2-2-2-2-2-2-2-2--|--3-2-0-2----0---2------2---0---2----|
D|--1-0-0-0--0-0-0-0-0-0-0-0-0-0--|--1-0-0-0----0---0------0---0---0----|
             PM-----------------
          2. But still our hands            2. Are bound at the wrists

E|----------------------------------------|---------------------------|
B|----------------------------------------|---------------------------|
G|----------------------------------------|---------------------------|
D|--2-0-2-2-3-2-0-2--2-2-2-2-2-2-2-2-2-2--|--3-2-0-2-2-2-2-2-2-2-2-2--|
A|--2-0-2-2-3-2-0-2--2-2-2-2-2-2-2-2-2-2--|--3-2-0-2-2-2-2-2-2-2-2-2--|
D|--0-0-0-0-1-0-0-0--0-0-0-0-0-0-0-0-0-0--|--1-0-0-0-0-0-0-0-0-0-0-0--|
                     PM-----------------
                  2. This romantic tradgedy  is suffocating from 

E|-------------------|------------------|
B|-------------------|------------------|
G|-------------------|------------------|
D|--0-0-0-0-0-0-0-5--|--0--0--5--5------|
A|--0-0-0-0-0-0-0-3--|--0--0--3--3------|
D|--0-0-0-0-0-0-0-3--|--0--0--3--3------|
 2. Your fist          in a sea of fire

CHORUS 

E|---------------|---------------|---------------|---------------|
B|---------------|---------------|---------------|---------------|
G|--9-9-9-9-9-9--|--4-4-4-4-4-4--|--5-5-5-5-5-5--|--7-7-7-7-7-7--|
D|--9-9-9-9-9-9--|--4-4-4-4-4-4--|--5-5-5-5-5-5--|--7-7-7-7-7-7--|
A|--7-7-7-7-7-7--|--2-2-2-2-2-2--|--3-3-3-3-3-3--|--5-5-5-5-5-5--|
D|---------------|---------------|---------------|---------------|
    I   guess   it's   too   bad   that   everything   we   have

E|---------------|---------------|---------------|---------------|
B|---------------|---------------|---------------|---------------|
G|--9-9-9-9-9-9--|--4-4-4-4-4-4--|--5-5-5-5-5-5--|--7-7-7-7-7-7--|
D|--9-9-9-9-9-9--|--4-4-4-4-4-4--|--5-5-5-5-5-5--|--7-7-7-7-7-7--|
A|--7-7-7-7-7-7--|--2-2-2-2-2-2--|--3-3-3-3-3-3--|--5-5-5-5-5-5--|
D|---------------|---------------|---------------|---------------|
    Is      is      taken      away     

BRIDGE
[ Tab from: http://www.guitartabs.cc/tabs/s/story_of_the_year/and_the_hero_will_drown_tab_ver_3.html ]
E|-------------------|-------------------|-------------------|-----------|
B|-------------------|-------------------|-------------------|-----------|
G|-------------------|-------------------|-------------------|-----------|
D|-------------------|-------------------|-------------------|-----------|
A|-------------------|-------------------|-------------------|-----------|
D|--0-0-0-0-1-0-0-0--|--0-0-0-0-1-0-0-0--|--0-0-0-0-1-0-0-0--|--0-0-0-0--|

E|-----------|-------------------|-------------------|-------------------|
B|-----------|-------------------|-------------------|-------------------|
G|-----------|-------------------|-------------------|-------------------|
D|-----------|-------------------|-------------------|-------------------|
A|-----------|-------------------|-------------------|-------------------|
D|--1-0-0-0--|--0-0-0-0-1-0-0-0--|--0-0-0-0-1-0-0-0--|--0-0-0-0-1-0-0-0--|

BREAKDOWN

E|---------------|---------------|---------------|---------------|-------|
B|---------------|---------------|---------------|---------------|-------|
G|--------5-5-5--|--------5-5-5--|--------5-5-5--|--------5-5-5--|-------|
D|--2-2-2-5-5-5--|--2-2-2-5-5-5--|--2-2-2-5-5-5--|--2-2-2-5-5-5--|--2\\\\|
A|--2-2-2-5-5-5--|--2-2-2-5-5-5--|--2-2-2-5-5-5--|--2-2-2-5-5-5--|--2\\\\|
D|--0-0-0-3-3-3--|--0-0-0-3-3-3--|--0-0-0-3-3-3--|--0-0-0-3-3-3--|--0\\\\|
 harmonics^ ^ ^           ^ ^ ^           ^ ^ ^           ^ ^ ^ major slide

VERSE 3

E|---------------|---------------|---------------|---------------|
B|---------------|---------------|---------------|---------------|
G|---------------|---------------|---------------|---------------|
D|--2-2-2-0-0-0--|--2-2-2-0-0-0--|--2-2-2-0-0-0--|--2-2-2-0-0-0--|
A|--2-2-2-0-0-0--|--2-2-2-0-0-0--|--2-2-2-0-0-0--|--2-2-2-0-0-0--|
D|--0-0-0-0-0-0--|--0-0-0-0-0-0--|--0-0-0-0-0-0--|--0-0-0-0-0-0--|
 3. Hero!           Hero!           This word you'll never know

E|---------------|---------------|---------------|---------------|-----|
B|---------------|---------------|---------------|---------------|--5--|
G|---------------|---------------|---------------|---------------|--7--|
D|--2-2-2-0-0-0--|--2-2-2-0-0-0--|--2-2-2-0-0-0--|--2-2-2-0-0-0--|--5--|
A|--2-2-2-0-0-0--|--2-2-2-0-0-0--|--2-2-2-0-0-0--|--2-2-2-0-0-0--|-----|
D|--0-0-0-0-0-0--|--0-0-0-0-0-0--|--0-0-0-0-0-0--|--0-0-0-0-0-0--|-----|
 3. Hero!           Hero!           This word you'll never know     

E|--------------|--------------|
B|--------------|--------------|
G|--------------|--------------|
D|--4--4--4--4--|--4--4--4--4--|
A|--2--2--2--2--|--2--2--2--2--|
D|--4--4--4--4--|--4--4--4--4--|
tremolo~~~~~~~~~~~~~~~~~~~~~~~~
               you'll never know

FILTERED CHORUS

E|--0-0-0-0-0-0--|---------------|---------------------------|
B|--0-0-0-0-0-0--|--8-8-8-8-8-8--|---------------------------|
G|--0-0-0-0-0-0--|---------------|--7-7-7-7-7-7-7-7-7-7-7-7--|
D|--2-2-2-2-2-2--|--4-4-4-4-4-4--|--5-5-5-5-5-5-5-5-5-5-5-5--|
A|---------------|---------------|--3-3-3-3-3-3-3-3-3-3-3-3--|
D|---------------|---------------|---------------------------|
    I    guess    it's    too    bad    when    everything

E|--0-0-0-0-0-0--|---------------|---------------------------|
B|--0-0-0-0-0-0--|--8-8-8-8-8-8--|---------------------------|
G|--0-0-0-0-0-0--|---------------|--7-7-7-7-7-7-7-7-7-7-7-7--|
D|--2-2-2-2-2-2--|--4-4-4-4-4-4--|--5-5-5-5-5-5-5-5-5-5-5-5--|
A|---------------|---------------|--3-3-3-3-3-3-3-3-3-3-3-3--|
D|---------------|---------------|---------------------------|
                               (open distortion on last measure)
    we    have  is    taken    away  (taken    away)

OUTRO

E|---------------|---------------|---------------|---------------|
B|---------------|---------------|---------------|---------------|
G|---------------|---------------|---------------|---------------|
D|--2-2-2-0-0-0--|--2-2-2-0-0-0--|--2-2-2-0-0-0--|--2-2-2-0-0-0--|
A|--2-2-2-0-0-0--|--2-2-2-0-0-0--|--2-2-2-0-0-0--|--2-2-2-0-0-0--|
D|--0-0-0-0-0-0--|--0-0-0-0-0-0--|--0-0-0-0-0-0--|--0-0-0-0-0-0--|
          PM---           PM---           PM---           PM---
    away!           away!           have taken it    away!

E|---------------|---------------|---------------|---------------|-----|
B|---------------|---------------|---------------|---------------|-----|
G|---------------|---------------|---------------|---------------|-----|
D|--2-2-2-0-0-0--|--2-2-2-0-0-0--|--2-2-2-0-0-0--|--2-2-2-0-0-0--|--2--|
A|--2-2-2-0-0-0--|--2-2-2-0-0-0--|--2-2-2-0-0-0--|--2-2-2-0-0-0--|--2--|
D|--0-0-0-0-0-0--|--0-0-0-0-0-0--|--0-0-0-0-0-0--|--0-0-0-0-0-0--|--0--|
          PM---           PM---           PM---           PM---
    away!           away!           have taken it    away!

===========================GUITAR 2==========================

=everything is the same as guitar 1 except for the following=

VERSES 1 AND 2 BACKGROUND

E|--0-0-0-0-0-0-0-0-0-0--|
B|--3-3-3-3-3-3-5-5-5-5--|
G|-----------------------|
D|-----------------------|
A|-----------------------|
D|-----------------------|
    PM-----------------
   use some wah-wah here

CHORUS

E|---------------|---------------------|---------------------|
B|---------------|---------------------|---------------------|
G|--9-9-9-9-9-9--|--12-12-12-12-12-12--|--14-14-14-14-14-14--|
D|---------------|---------------------|---------------------|
A|--7-7-7-7-7-7--|--10-10-10-10-10-10--|--12-12-12-12-12-12--|
D|---------------|---------------------|---------------------|

E|---------------|---------------------|---------------------|
B|---------------|---------------------|---------------------|
G|--7-7-7-7-7-7--|--12-12-12-12-12-12--|--11-11-11-11-11-11--|
D|---------------|---------------------|---------------------|
A|--5-5-5-5-5-5--|--10-10-10-10-10-10--|---9--9--9--9--9--9--|
D|---------------|---------------------|---------------------|

BRIDGE

E|-----------|
B|-----------|
G|-----------|
D|--2-2-2-2--|
A|--2-2-2-2--|
D|--2-2-2-2--|
Comments