Story Of The Year - And The Hero Will Drown Chords & Tabs

 

And The Hero Will Drown Chords & Tabs

Story Of The Year Chords & Tabs

Version: 1 Type: Tab 0 ratings
1 star 2 stars 3 stars 4 stars 5 stars
comments

And The Hero Will Drown Tab

Story of the Year-And the Hero Will Drown

intro (Guitar 1) distortion

e|-0-0-0-0-0--0--0--0----------------------------|
b|-5-7-8-7-12-15-17-19---------------------------|  didnt put how many 
g|-----------------------------------------------| how many times you strum
d|-----------------------------------------------| so you figure it out.
a|-----------------------------------------------| they may have some wah in
E|-----------------------------------------------| the beginning.

verse (Guitar 2) distortion

e|-----------------------------------------------|
b|-----------------------------------------------|
g|-----------------------------------------------|
d|-2-0----2p0-0-2----2p0-0-2-22-33-33------------|  x2
a|-2-0-x1-2p0-0-2-x2-2p0-0-2-22-33-33-x1---------|
D|-2-0----2p0-0-2----2p0-0-2-22-33-33------------|

verse (guitar 1) clean

e|-----------------------------------------------| he comes in later on and 
b|-----------------------------------------------| does this but you can
g|----7-7-7----9-9-9--11-11-11-------------------| barely here it.
d|-----------------------------------------------|
a|-----------------------------------------------|
E|-----------------------------------------------|
   p.m.........................

chorus (guitar 1) distortion
[ Tab from: http://www.guitartabs.cc/tabs/s/story_of_the_year/and_the_hero_will_drown_tab.html ]
e|-----------------------------------------------|
b|-----------------------------------------------| figure out the strumming
g|-9------4--------------------------------------| yourself
d|-9--9---4--4-----------------------------------| x2
a|-7--9---2--4-----------------------------------|
E|----7------2-----------------------------------|

verse again then the prechorus, you just mute the top two strings and strum them. 

then play chorus twice and strum the last chord more times than normal.

thing after chrous (guitar 1)

e|-----------------------------------------------|
b|-----------------------------------------------| do it how ever many times
g|-----------------------------------------------| you need to.
d|-2-22-444-2-22-444-2-22-444--------------------| you would slowly push 
a|-----------------------------------------------| down a pedal here.
E|-----------------------------------------------|

thing after chorus (guitar 2)

e|-----------------------------------------------|
b|-----------------------------------------------| he does this while guitar
g|-----------------------------------------------| 1 is doing the thing on 
d|--2-22-----------------------------------------| the seconf fret.
a|--2-22-----------------------------------------|
D|--2-22-----------------------------------------|

(guitar 2)

e|-----------------------------------------------|
b|-----------------------------------------------| do it however many times
g|-----------------------------------------------| you need to.
d|-2-22xxx-2-22xxx-2-22xxx-----------------------|
a|-2-22xxx-2-22xxx-2-22xxx-----------------------|
D|-2-22xxx-2-22xxx-2-22xxx-----------------------|

then go into the chorus but its clean and then it changes into distortion.

then go back to the thing above that guitar 2 does. 

And thats pretty much it. got any changes or whatever email me. jorge3186@aol.com
Comments