Stooges - No Fun Chords & Tabs

 

No Fun Chords & Tabs

Stooges Chords & Tabs

Version: 1 Type: Tab 0 ratings
1 star 2 stars 3 stars 4 stars 5 stars
comments

No Fun Tab

   
4. No Fun-The Stooges

   Guitars-Ron Asheton

   From the Album: The Stooges (Self Titled)

   Verse: Play this over and over again

e---------------------------------------------------------------------------
B---------------------------------------------------------------------------
G---------------------------------------------------------------------------
D-----------------------------x--x--7--7--5--7--5--7------------------------
A---x--x--7--7--5--7--5--7----x--x--5--5--3--5--3--5------------------------
E---x--x--5--5--3--5--3--5--------------------------------------------------


e---------------------------------------------------------------------------
B---------------------------------------------------------------------------
G---------------------------------------------------------------------------
D-----------------------------x--x--7--7--5--7--5--7------------------------
A---x--x--7--7--5--7--5--7----x--x--5--5--3--5--3--5------------------------
E---x--x--5--5--3--5--3--5--------------------------------------------------


  Solo
e---------------------------------------------------------------------------
B---------------------------------------------------------------------------
G---------------------------------------------------------------------------
D--13b----13b--13b----11h13b--13b--13b---13b-----13b-----13b----------13b---
A---------------------------------------------------------------------------
E---------------------------------------------------------------------------
  2:49


e---------------------------------------------------------------------------
B---------------------------------------------------------------------------
G---------------------------------------------------------------------------
D--12b-12b-12b-12br--10--------------10br---------------------10--12--12br--
A-----------------------12--10h12p10------12---12-10h12-10h12---------------
E---------------------------------------------------------------------------
  3:17


e---------------------------------------------------------------------------
B---------------------------------------------------------------------------
G---------------------------------------------------------------------------
D--10h12p10-------------------------------------------------/2--2/5--7v-----
A------------12--12-11-10---------------------3---------3h5-----------------
E-------------------------12--10--8----5--3h5---5---3h5---------------------
  3:23


e---------------------------------------------------------------------------
B---------------------------------------------------------------------------
G---------------------------------------------------------------------------
D--10h12p10--12b---12b-12b-12b-12br--10h12p10-------------10-12b--13br-13br-
A---------------------------------------------12-10-12-10-------------------
E---------------------------------------------------------------------------
  3:29


e-----------------------------------------10--------------------------------
B---------------------------------------------------------------------------
G---------------------------------------------------------------------------
D-13br-13br-------10h12p10----10h12p10-------10------------------10-12------
A-----------12p10----------12----------12-------12---------10h12-------12---
E----------------------------------------------------10h12------------------
  3:


e---------------------------------------------------------------------------
B----------/10--------------------------------------------------------------
G---------------12/14-12--13b-13b-13b-13b-13b-13br--12h14p12----------12br--
D-10-12------------------------------------------------------14-12h14-------
A-------12------------------------------------------------------------------
E---------------------------------------------------------------------------
  3:


e---------------------------------------------------------------------------
B---------------------------------------------------------------------------
G-12H14-12----12h14-12h14-12h14-12h14--12-14-14br-14br--12h14-12v--12h14-12-
D----------14---------------------------------------------------------------
A---------------------------------------------------------------------------
E---------------------------------------------------------------------------
  3:51


e---------------------------------------------------------------------------
B---------------------------------------------------------------------------
G------------------------------12----12--14--14br--14b-14--16--14--16--14b--
D-------------14-12---12b---14----14----------------------------------------
A-12h14-12h14---------------------------------------------------------------
E---------------------------------------------------------------------------
  3:57
[ Tab from: http://www.guitartabs.cc/tabs/s/stooges/no_fun_tab.html ]
  (Stacato)
e---------------------------------------------------------------------------
B---------------------------------------------------------------------------
G-14b-14b-14b-14b-14b-14b-14b-14br-14-14-14b-14b-14b---14--16\---10h12-10---
D---------------------------------------------------------------------------
A---------------------------------------------------------------------------
E---------------------------------------------------------------------------
  4:03


e---------------------------------------------------------------------------
B---------------------------------------------------------------------------
G---------------------------------------------------------------------------
D----------10---12----10---12----10------------10-----10b---10b-10b-10br----
A-12-10h12---------12---------12----12--10--12----12------------------------
E---------------------------------------------------------------------------
  4:07


e---------------------------------------------------------------------------
B---------------------------------------------------------------------------
G------------5-----5-----------7b---7b-7b--5h7-----5---5---5bv~~--5br-5br---
D----------7---5h7----7--7--5------------------5h7---7---7------------------
A--7--7--5------------5--5--3-----------------------------------------------
E--5--5--3------------------------------------------------------------------
  4:13


e---------------------------------------------------------------------
B---------------------------------------------------------------------
G--5br--5-5-5-5-5v--5-5-5-5-5-5v--5-5-5-5-5v--5--------5--5-5-5-5-5v--
D-----------------------------------------------7--5h7----------------
A---------------------------------------------------------------------
E---------------------------------------------------------------------
  4:20 


e---------------------------------------------------------------
B---------------------------------------------------------------
G---5-5-5-5--5-5--5-5--7b-7-7b-7-7b-7-7b-7-7b-7-7b-7-7b-7-7b-7--
D---------------------------------------------------------------
A---------------------------------------------------------------
E---------------------------------------------------------------
  4:25

e------------------------------------------------------------------------
B------------------------------------------------------------------------
G--7b--5v-5v--5v-5br-5--6-6-4---------7-7-5-5bbbrrr-6-6-4---------7-7-5--
D-----------------------7-7-5-5bbbrrr-7-7-5---------7-7-5-7bbbrrr-7-7-5--
A-----------------------7-7-5---------5-5-3---------7-7-5---------5-5-3--
E-----------------------5-5-3-----------------------5-5-3----------------
  4:30


e---------------------------------------------------------------------------
B---------------------------------------------------------------------------
G---------------------------------------------------------------------------
D--12b-12-12-12-12-12br-10h12p10-------10--10h12-10h12-10h12-12b-12b-12b-12b
A--------------------------------10h12--------------------------------------
E---------------------------------------------------------------------------
  4:38                                                      (Bend Slowly 
                                                             while Stacatto 
                                                                  picking)            
                                                                                           
e---------------------------------------------------------------------------
B---------------------------------------------------------------------------
G---------------------------------------------------------------------------
D-12b-12b-12b-12b-12b-12b--12-10---------------/15v~~~-14b-14b-14b-14b-14b~~
A--------------------------------12--10h12-12-------------------------------
E---------------------------------------------------------------------------
  4:43


e---------------------------------------------------------------------------
B---------------------------------------------------------------------------
G---------------------------------------------------------------------------
D--14b--14v--14-14b-14-14b-14-14b--7-------7--------7--------7--------7-----
A----------------------------------7-------7--------7--------7--------7-----
E----------------------------------5-------5--------5--------5--------5-----
  4:48                           (Keep Hitting this chord and letting it 
                                   create massive feedback until the 
                                    end of the song)

                                              The End

Here is a quick guide to how I denote certain actions on the guitar

Slide up = /

Slide Down = \

Bend = b

Pre Bend = pb

Release = r

Hammer On = h

Pull Off = p 

Vibrato = v
Comments