Stooges - 1 Chords & Tabs

 

1 Chords & Tabs

Stooges Chords & Tabs

Version: 1 Type: Bass Tab 0 ratings
1 star 2 stars 3 stars 4 stars 5 stars
comments

1 Bass Tab

artist: stooges
song: 1970

main riff
|-----------------|
|---5---5-----5-5-|
|-7---7---7-7-----|
|-----------------|

"i feel alright" part (i think)
|-------|
|-------|
|-7-5-5-|
|-------|
[ Tab from: http://www.guitartabs.cc/tabs/s/stooges/1_btab.html ]
variation of the main riff
|-----------------|
|-------------5-5-|
|-7-7-7-7-7-7-----|
|-----------------|

send any questions, comments, critism or death threats to 
jonkeller@yahoo.com...  or don't.  the choice is yours! 

Comments