Stooges - 1969 Chords & Tabs

 

1969 Chords & Tabs

Stooges Chords & Tabs

Version: 1 Type: Tab 1 rating
1 star 2 stars 3 stars 4 stars 5 stars
comments

1969 Tab

   
1. 1969-The Stooges

   Guitar-Ron Asheton

   From the Album: The Stooges (Self Titled) 


   Intro (With Wah Effect)

e---------------------------------------------------------------------------
B---------------------------------------------------------------------------
G---------------------------------------------------------------------------
D-------7-------5---5--5--------7-----5---5--5------7--------5---5--5-------
A---7---5----7--3---3--3-----7--5--7--3---3--3---7--5---7----3---3--3-------
E---5--------5---------------5-----5-------------5------5-------------------


e---------------------------------------------------------------------------
B---------------------------------------------------------------------------
G---------------------------------------------------------------------------
D-------7-------5---5--5--------7-------------------------------------------
A---7---5----7--3---3--3-----7--5--7--7--5--7--5--7--5--7-------------------
E---5--------5---------------5-----5--5--3--5--3--5--3--5-------------------

      
   Solo                                                   With Wah Effect
e---------------------------------------------------------------------------
B---------------------------------------------------------------------------
G---------------------------------------------------------------------------
D----------------7-7-7-7-7-7-7-7-7-7-7-7-5-5-5-5-5-5-5-5-5-5-7-7-7-7-7-7-7-7
A--7---------5--------------------------------------------------------------
E--5---------3--------------------------------------------------------------
   1:38 

                                              *Full Bend 
e------------------------------------------------------------------------
B-----------------------------------------8*---------8--10--10*--8-10-8--
G-----------------------9-9-9-9-9-9-9-9-9----9--7/9----------------------
D-7-7-7-5-5-5-5-5-5-5-5--------------------------------------------------
A------------------------------------------------------------------------
E------------------------------------------------------------------------
                        1:57              2:00

                *Full Bend
e---------------------------------------------------------------------------
B----------8-----8--10--10*-------------------------------------------------
G--9--7h9-----9-------------------10--8v------------------------------------
D----------------------------7/9----------7--10-7---------7v-9bv---7-10-7---
A-------------------------------------------------10-7-10-------------------
E---------------------------------------------------------------------------
  2:03

e---------------------------------------------------------------------------
B---------------------------------------------------------------------------
G-------------------7h9-7h9-7h9-7h9-7h9-7h9-14v--14-14-14-14-14-16-16-16-16-
D---------------------------------------------------------------------------
A--10-7-5--5b--5h7----------------------------------------------------------
E---------------------------------------------------------------------------
   2:09
                                                        With Wah Effect
e---------------------------------------------------------------------------
B---------------------------------------------------------------------------
G--16-16-17-17-17-17-17-17-17-17-19-19-19-19-19-19-19-19--------------9-----
D--------------------------------------------------------7v--9-9-9-12---12--
A---------------------------------------------------------------------------
E---------------------------------------------------------------------------
   2:16

e---------------------------------------------------------------------------
B---------------------------------------------------------------------------
G--9h12--9------------------------------------------------------------------
D-----------12h14-----------------------------------------10b---------------
A-----------------14-12-10v---10h12-10--10h12-10-10h12-10-----12--10h12p10--
E---------------------------------------------------------------------------
   2:22

e---------------------------------------------------------------------------
B---------------------------------------------------------------------------
G---------------------------------12h14v--14-14-14-14-14-14-14-14-16-16-16--
D----------10-12-13b--10h12-14-12-------------------------------------------
A-10h12p10------------------------------------------------------------------
E---------------------------------------------------------------------------
   2:28

e---------------------------------------------------------------------------
B----------------------------------------------19b-------19b-------19b--19b-
G-16-16-16-17-17-17-17-17-19-19-19-19-19-19h20-----19h20-----19h20----------
D---------------------------------------------------------------------------
A---------------------------------------------------------------------------
E---------------------------------------------------------------------------
   2:33
[ Tab from: http://www.guitartabs.cc/tabs/s/stooges/1969_tab.html ]
e---------------------------------------------------------------------------
B---------------------------------------------------------------------------
G--------11b----------------------------------------------------------------
D--10h12------8h10-10b---10h12-10-----10----10----10----12----10-12-12b-12b-
A----------------------------------12----12----12----12----12---------------
E---------------------------------------------------------------------------
   2:37

e---------------------------------------------------------------------------
B---------------------------------------------------------------------------
G---------------------------------------------------------------------------
D--12b-12b--12-12b-12b-12b-12b--12b-12b--10h12-10----------10------10-12-10-
A-------------------------------------------------12-10-12------12----------
E---------------------------------------------------------------------------
   2:43 

e------------------------------------------------------------
B------------------------------------------------------------
G------------------------------------------------------------
D-10h12-10------------10-12-10h12p10------------10h12--------
A----------12--12--12----------------10--10--10-------12-10--
E------------------------------------------------------------
   2:52

e-----------------------------------------------------------------
B-----------------------------------------------------------------
G-----------------------------------------------------------------
D-------------12/14v~~-14v-14v--12h14-12-------------12--12h14----
A--12--12--12----------------------------14-12-12h14--------------
E-----------------------------------------------------------------
    2:57

e-----------------------------------------------------------------------
B-----------------------------------------------------------------------
G--------12---------------------14v--12v--12v-12-12--14/16-14-12--------
D--12h14----14v~~--14-14-14-14-----------------------------------14-12--
A-----------------------------------------------------------------------
E-----------------------------------------------------------------------
    3:01

e---------------------------------------------------------------------------
B---------------------------------------------------------------------------
G---------------------------------------------------------------------------
D---------------------------------------------------------------------------
A--14-12--------------10-12-10----10-12-10----10-12-10----10-12-10----------
E--------14-12--10-12----------12----------12----------12----------12-------
    3:07

e---------------------------------------------------------------------------
B---------------------------------------------------------------------------
G---------------------------------------------------------------------------
D------------------------12-------14-------15b---12----------------------12-
A-----10-12-12\14--12h14----14h16----15h17----------14-12------14--12h14----
E--12-----------------------------------------------------10v---------------
    3:10

e---------------------------------------------------------------------------
B---------------------------------------------------------------------------
G---------------------------------------------------------------------------
D-----12--15b----15pb-15pb-15pb-15pb-15pb-15pb-15pb-15pb-15pb-15pb-15pb-----
A--14-----------------------------------------------------------------------
E---------------------------------------------------------------------------
    3:15
    
e---------------------------------------------------------------------------
B---------------------------------------------------------------------------
G---------------------------------------------------------------------------
D--15pbr\--7--7--7--7--7-7--5--5-----7--------5-----------------------------
A----------7--7--7--7--7-7--5--5-----7--------5----10-10-10-10-10-10-10-10--
E----------5--5--5--5--5-5--3--3-----5--------3-----------------------------
    3:19


e-----------------------------------------------------------------------
B-----------------------------------------------------------------------
G-----------------------------------------------------------------------
D-----------------------------------------------------------------------
A--10h12-10---12--10h12p10---10-10-10-10/12~~~~~~~~~~~~~~~~~~~~~~~~~~~--
E-----------------------------------------------------------------------
    3:29
    
e---------------------------------------------------------------------------
B-----------------------------------------------/11--/14---/11--------------
G--------------------------------------/10--/13----------------10-----------
D--10h12-10h12-10h12-10h12-10h12-10h12--------------------------------------
A------------------------------------------------------------------5--------
E--------------------------------------------------------------------5~~~---
    3:44

e--------------------------------------------------------------------
B--------------------------------------------------------------------
G------------------------------------------------------7-5~~---5--5--
D--/7-7---5h7-5h7-5h7-5h7-7-----5h7-5h7-5h7-5h7-7--5h7---------------
A--------------------------------------------------------------------
E--------------------------------------------------------------------
    3:52                                                Fade Out.
                                                         The End. 


Here is a quick guide to how I denote certain actions on the guitar

Slide up = /

Slide Down = \

Bend = b

Pre Bend = pb

Slow Bend = sb

Release = r

Hammer On = h

Pull Off = p 

Vibrato = v

Mute = x

Hold Vibrato = v~~~
Comments