Stonefree - Listen Chords & Tabs

 

Listen Chords & Tabs

Stonefree Chords & Tabs

Version: 3 Type: Tab 0 ratings
1 star 2 stars 3 stars 4 stars 5 stars
comments

Listen Tab

Intro:
  1   2   1h3   2   3   2 2   C9 		:Left H Fingering
Eb-----------------------------3--2--------------|
Bb-----3---------3-------3-----3--3-3---3--------|
Gb---0---0-----0---0---0-----0-0--0---0----------|
Db-2-------2h4-------4---------2-----------------|
Ab-------------------------3---3-----------------|
Eb-----------------------------------------------|

Eb-----------------------------3--2--------------|
Bb-----3---------3-------3-----3--3-3------------|
Gb---0---0-----0---0---0-----0-0--0--------------|
Db-2-------2h4-------4---------2-----------------|
Ab-------------------------3---3-----------------|
Eb-----------------------------------------------|

Verse: Alternate ang (1) at (2)

(1)
Eb-----------------------------3--2--------------|
Bb-----3---------3-------3-----3--3-3---3--------|
Gb---0---0-----0---0---0-----0-0--0---0----------|
Db-2-------2h4-------4---------2-----------------|
Ab-------------------------3---3-----------------|
Eb-----------------------------------------------|

(2)
Eb---------------0-------------3--2--------------|
Bb-----3-----------3-----------3--3-3---3--------|
Gb---0---0-----0-----0---0---0-0--0---0----------|
Db-2-------2h4---------4-------2-----------------|
Ab-------------------------3---3-----------------|
Eb-----------------------------------------------|


Chorus:
Guitar 1
------------------|   Gb-Db-Bbm-B(9) or G-D-Bm-C(9) relative to the nut
Eb----------------|
Bb----------------|
Gb-x--5---4---5---|
Db-5--5---4---5---|
Ab-5--7---2---3---|
Eb-3--x---x---x---|
       ^----power chords for lead guitar
[ Tab from: http://www.guitartabs.cc/tabs/s/stonefree/listen_tab_ver_3.html ]
Solo:
Eb--------------------------------------------------------|
Bb--------------------------------------------------------|
Gb-5/7-5-4---4h5-4--------5-5/7-5-4br---4h5-4-------------|
Db---------5-------5-5--5-------------5-------5-----------|
Ab----------------------------------------------5\3-2-3/5-|
Eb--------------------------------------------------------|

Eb------------------------------------------------------|
Bb----------------------------8v----10---8---10---8-----|
Gb-5/7-5-4br---4h5-4-------------7----7---7----7--------|
Db-----------5-------5-5--5/7---------------------------|
Ab------------------------------------------------------|
Eb------------------------------------------------------|


Eb--------<7>----------------------------------|
Bb-----------------<7>-------<12>--------------|
Gb-7-7-5-----<5><7>---<7>--------<12>----------|
Db-7-7-5-----------------<7>---------<12>------|
Ab-5-5-3---------------------------------------|
Eb---------------------------------------------|

Eb-----------------------------------------------|
Bb--------<12>-------<12>-------<12>-------------|
Gb-7-7-5------<7><12>----<5>--------<12><5>------|
Db-7-7-5--------------------<12>-----------------|
Ab-5-5-3-----------------------------------------|
Eb-----------------------------------------------|

Eb--------<7>----------------------------------|
Bb-----------------<7>-------<12>--------------|
Gb-7-7-5-----<5><7>---<7>--------<12>----------|
Db-7-7-5-----------------<7>---------<12>------|
Ab-5-5-3---------------------------------------|
Eb---------------------------------------------|

Last verse: (2) lagi
Comments