Stonefree - Listen Chords & Tabs

 

Listen Chords & Tabs

Stonefree Chords & Tabs

Version: 1 Type: Tab 0 ratings
1 star 2 stars 3 stars 4 stars 5 stars
comments

Listen Tab

   
listen-stonefree

intro/verse
e||--------------------3---------------------------------------|
B||-----3-------3-----3----------------------------------------|
G||----0-0-----0-0---------------------------------------------|
D||---2---2-2h4---4--------------------------------------------|
A||-----------------3------------------------------------------|
E||------------------------------------------------------------|

Chorus

C D B C (2 or 3x)

solo
[ Tab from: http://www.guitartabs.cc/tabs/s/stonefree/listen_tab.html ]
e||-----------------------------------------------------3-5-7-5-3--5-3-|
B||--3---------------3-------------------3--------------3-3-3-3-3--3-3-|
G||----5-4-4h5p4-------5-4-4h5p4-----------5-4-4h5p4-------------------|
D||-------5-----5-5-------5-----5-3-----------5-----5-5----------------|
A||--------------------------------5-3---------------------------------|
E||-----------------------------------5-3------------------------------|

e||-19-----------5-3--19-----------5-3--19----------5-3------------|
B||---20--19h20--3-3----20--19h20--3-3----20--19h20-3-3------------|
G||-----19----------------19----------------19---------------------|
D||----------------------------------------------------------------|
A||----------------------------------------------------------------|
E||----------------------------------------------------------------|
Comments