Stone Temple Pilots - Wonderful Fvt Version Chords & Tabs

 

Wonderful Fvt Version Chords & Tabs

Stone Temple Pilots Chords & Tabs

Version: 1 Type: Tab 0 ratings
1 star 2 stars 3 stars 4 stars 5 stars
comments

Wonderful Fvt Version Tab

Artist    : Stone Temple Pilots feat. Chester Bennington of Linkin Park
song      : Wonderful (as played on the family values tour 2001)
tabbed by : christian strowitzki
tuning    : standard



intro
---------------------0-0---0------
----1----1-----------1-1---1------
----0----0--0--0-----0-0---0------
----2h3--2--0--0h2---2-2---2------
----3----3--3--3-----3-3---3------
----------------------------------

verse
----0----1----1----1--------------
----1----3----1----3--------------
----0----3----2----3--------------
----2----3----3----3--------------
----3----1----3----1--------------
--------------1-------------------

pre chorus
----1----4----3----0----4----3----
----1----4----5----1----4----3----
----2----5----5----2----5----4----
----3----6----5----2----6----5----
----3----6----3----0----6----5----
----1----4--------------4----3----

chorus
----4----1----0---0---0---0----0---0---0---0----------
----4----3----1---1---1---1----1---1---1---1----------
----5----3----0---0---0---0----0---0---0---0----------
----6----3----2h3-2---0---0h2--2h3-2---0---0h2--------
----6----1----3---3---3---3----3---3---3---3----------
----4-------------------------------------------------

solo
------------------------------------------------------------------------------
------------------------------------------------------------------------------
------------0-----0-2-0h2p0-----------3/5-3-2-0-------------------------------
------0-2-3---2-3-----------3-2-3-2-3--------------3h5p3-2-3-2-0--------------
----3------------------------------------------------------------3-5~-3-1-----
------------------------------------------------------------------------------
[ Tab from: http://www.guitartabs.cc/tabs/s/stone_temple_pilots/wonderful_fvt_version_tab.html ]
--------------------------------------------------------------------
--------------------------------------------------------------------
---------------------------------7/9-------------------------0------
--------0-0h2p0---0----------5/7-------------------------0-2--------
------3---------3----0h3-5/7-------------------------1/3-------3----
----3---------------------------------------------------------------

--------------------------------------------------------------------
--------------------------------------------------------------------
----------0---0-5-7--9-10-12-10h12p10-9-10--9-10-12-10-9--10p9-7----
------0-2---2-------------------------------------------------------
----3---------------------------------------------------------------
--------------------------------------------------------------------

----8-10-12-10h12p10-8-10-8-6~--8-6~--8-6~-----------------------------------------
--------------------------------------------------------11--11-11--11-11--11-11----
--------------------------------------------7-9-10-9/10-12--12-12--12-12--12-12----
-----------------------------------------------------------------------------------
-----------------------------------------------------------------------------------
-----------------------------------------------------------------------------------

---------------/12-8-6-3----
----------------------------
----7/10-12-10--------------
----------------------------
----------------------------
----------------------------

outro
----4--4----1--1----------------------------------------3-0-(0)----
----4--4----3--3----------------------------------1-0--------------
----5--5----3--3--------------0------------------0----0------------
----6--6----3--3--------0-2-3---2-3-2-0h2p0-----2------------------
----6--6----1--1------3---------------------0--3-------------------
----4--4-----------------------------------------------------------



intro       2x
verse       2x
pre chorus  1x
verse       2x
pre chorus  1x
chorus      2x
solo        1x
pre chorus  1x
chorus      2x
outro       1x
Comments