Stone Temple Pilots - Wicked Garden Chords & Tabs

 

Wicked Garden Chords & Tabs

Stone Temple Pilots Chords & Tabs

Version: 1 Type: Tab 0 ratings
1 star 2 stars 3 stars 4 stars 5 stars
comments

Wicked Garden Tab

   
#----------------------------------PLEASE NOTE---------------------------------#
#This file is the author's own work and represents their interpretation of the #
#song. You may only use this file for private study, scholarship, or research. #
#------------------------------------------------------------------------------#

From j.p.juneau@arcadis.be Sun May  4 09:43:41 1997
Date: Sat, 15 Mar 1997 14:02:27 +0100
From: "J.P.Juneau" 
To: guitar@olga.net
Subject: tab/stone temple pilots/wicked garden

    [The following text is in the "ISO-8859-1" character set]
    [Your display is set for the "US-ASCII" character set]
    [Some characters may be displayed incorrectly]


WICKED GARDEN
STONE TEMPLE PILOTS


Here's yet another stp song. This one i am absolutely sure of.
it's off the CORE album. It's very simple to play.
So here it goes.


Standard tuning.


intro:
     G5    D5   A5
e:----3-------------        at the end of     e:------------ 
B:----3----2--------        the fourth time   B:------------
G:----0----3----2---  X4    play this slide   G:----9/14~~~~
D:----0----0----2---                          D:----9/14~~~~
A:--------------0---                          A:----9/14~~~~
E:----3-------------                          E:------------


riff 1 :
  G5 A5     
e:-------------------------------------
B:-------------------------------------
G:------------------------------------- many times   
D:-5/7-------7-------7-7-------7-----5-
A:-5/7-------7-------7-7-------7-----5-
E:-3/5-(5-5)-5-(5-5)-5-5-(5-5)-5-(5)-3-
       
 
"(5-5)" means you have to palm mute those notes. 


verse riff:
e:-------------------------------
B:-------------------------------
G:--------------------------7--6- X4
D:-5H7-7-7-7-7-7-7--7-7-7---7--7-  
A:-0---0-0-0-0-0-0--0-0-0---0----
E:-------------------------------


pre chorus:

riff 1  X4

verse 2:

same as the first

pre chorus again:

same except that when you finish playing riff 1 the fourth
time,
don't go back to G5. go down to F#5, to start the chorus.
[ Tab from: http://www.guitartabs.cc/tabs/s/stone_temple_pilots/wicked_garden_tab.html ]
chorus:
   F#5        D5           B5
e:-----------------------------------------------------------
B:------------3----3-3---------------------------------------
G:------------2----2-2-----4---4-4---4---4-4---4-4---4-4-4---
X2
D:--4---4-----0----0-0-----4---4-4---4---4-4---4-4---4-4-4-4-
A:--4---4----------------0-2---0-2---2---0-2---0-2---0-2-0-4-
E:--2---2---0----------------------------------------------2-

  can  you    see       just like a  child ?


   E7
e:--0--0-0-0-0-0--0--0--0-0-0-0-0--
B:--0--0-0-0-0-0--0--0--0-0-0-0-0-- many times ,i'm not sure 
G:--1--1-1-1-1-1--1--1--1-1-1-1-1-- about the rhythm...
D:--0--0-0-0-0-0--0--0--0-0-0-0-0--
A:--2--2-2-2-2-2--2--2--2-2-2-2-2--
E:--0--0-0-0-0-0--0--0--0-0-0-0-0--
  alive   ehay  ehay  ehay ehay......



   Then there is this heavy part:
    G5    F#5          A5
e:--------------------------------------------------------------
-
B:--------------------------------------------------------------
-
G:--------------------------------------------------------------
-
D:--5---5-4---5---4-5---7--7------4-5---5-4---5---4-5---7--7--xx
-
A:--5---5-4---5---4-5---7--7------4-5---5-4---5---4-5--
7--7--xx-
E:--3---3-2---3---2-3---5--5----0-2-3---3-2---3---2-3---5--5--xx
-

 burn,                      burn       burn............
      (burn, burn,burn, )


riff 1


Verse 3:

pre chorus:

chorus:

heavy part:


and finally play the intro ....    and that's it. 


========================================================================================================


From j.p.juneau@arcadis.be Tue Apr  8 12:59:25 1997
Date: Tue, 11 Mar 1997 18:38:20 +0100
From: "J.P.Juneau" 
To: guitar@olga.net
Subject: tab/stone temple pilots/wet my bed

    [The following text is in the "ISO-8859-1" character set]
    [Your display is set for the "US-ASCII" character set]
    [Some characters may be displayed incorrectly]


WET MY BED
STONE TEMPLE PILOTS

I know there's not much to this song, but hey, a song's a song.
This is only the way I play it, there could be a thousand
different ways of playing it.

use your acoustic to get a better sound and don't let the notes
ring to much.

Here's the riff:

e:--10---3-0------9---3-0------7---3-0-------------------
B:--10---3-0------9---3-0------7---3-0----------0-0-0----
G:-------4-2----------4-1----------4-0----------4-4-4---- X4.5
D:----------------------------------------------2-3-4----
A:-------------------------------------------------------
E:-------------------------------------------------------
Comments