Stone Temple Pilots - Wicked Garden Chords & Tabs

 

Wicked Garden Chords & Tabs

Stone Temple Pilots Chords & Tabs

Version: 2 Type: Bass Tab 0 ratings
1 star 2 stars 3 stars 4 stars 5 stars
comments

Wicked Garden Bass Tab

   
SONG : Wicked Garden
BAND : Stone Temple Pilots
ALBUM : Core
tabbed by Jason Lapointe
previous tab and thanks to Nick Key

Nick did a good job getting most of the basic elements down, however
this song is a little more complex during the verse than the way he
transcribed it. Here's my build on his:

Intro/Outro
G|-------------------------------------------|
D|----------------------------------------7--|
A|-10-------------5------10------------5--0--|
E|----10-\-5---3-----5------10-\-5--3--------|

Verse A                       x3                                x1
G|-------------------------------|---------------------------------|
D|-------------------------------|---------------------------------|
A|---------------------------5-4-|---------------------------------|
E|-3h5-5-5-3h5-5-5-3h5--5--5-----|-3h5-5-5-3h5-5-5-3h5--5--5-0-2-3-|

Verse B                                                x2
G|-------------------------------------------------------|
D|-------------------------------------------------------|
A|-5-4-------------------------5-4-------------------2---|
E|-----5--5--0-3h5--5--5-0-2-3-----5--5--0-3h5--5--5---3-|
[ Tab from: http://www.guitartabs.cc/tabs/s/stone_temple_pilots/wicked_garden_btab_ver_2.html ]
Chorus A                                                     3x
G|--------------------------------------------------------------|
D|--------------------------------------------------------------|
A|----------------5--5-5-5-5-5-0-2--2-2-2-2-2-2-2-2-2-2-2-2-0---|
E|-2--2-2-2-2-0-0---------------------------------------------3-|

Chorus B                    x1
G|-----------------------------|----------------|
D|-----------------------------|----------------|
A|----------------5--5-5-5-5-5-|----------------|
E|-2--2-2-2-2-0-0--------------|-0--0-0-0-2-3-2-|
                                ^This part is played 3x 1st time,
                                 2nd time played 7x
Post Chorus
G|--------------------------------------------------|
D|--------------------------------------------------|
A|---------------------------------------3----------|
E|-3--3-2-3--2-3--5--5-5-0-2-3--3-2-3--2-----5--5-5-|

This was from memory, so I'd rather not put down where and when each part
goes in case I'm wrong. However, all the sections are here and I believe
99.9% accurate. Listen to the recording to nail it. After running through
the tab a few times you should have it no problem. Really fun to play!
Comments