Stone Temple Pilots - Where The River Flows Chords & Tabs

 

Where The River Flows Chords & Tabs

Stone Temple Pilots Chords & Tabs

Version: 1 Type: Tab 0 ratings
1 star 2 stars 3 stars 4 stars 5 stars
comments

Where The River Flows Tab

   
-----------------------------------------------------------------------
		Where The River Goes - Stone Temple Pilots
-----------------------------------------------------------------------
Tabbed by:Fire_Blight
Email: Jtsdill@charter.net

Tuning: Normal


Intro Solo:
	       hold
e|-XXXXX--------------------------------------------------------------|
B|-XXXXX---15^17(17)v15--12--------------16--------14~~~~~------------|
G|-XXXXX---------------------14^v^16--14----14-----14~~~~~------------|
D|-XXXXX----------------------------------------16--------------------|
A|-XXXXX--------------------------------------------------------------|
E|-XXXXX--------------------------------------------------------------|
				hold       (Bridge)
e|--------------------------------------|-----------------------------|
B|--------------------------15^17(17)\0-|-----------------------------|
G|-------12---14---12---14--------------|-----------------------------|
D|--/14---------------------------------|--7-----------8--------------|
A|--------------------------------------|--7-----------7--------------|
E|--------------------------------------|--5-----------6--------------|

Intro Guitar Rhythem:

e|-----------------------------------------------------------|
B|------------7---------------7---------------7--------------|
G|------------6---------------6---------------6--------------|
D|------------5---------------5---------------5--------------| x2 for
A|------------6---------------6---------------6------------4-| intro
E|----3---0-------0---3---0-------0---3---0-------3--5--3----|

Bridge:

e|-----------------------------------------------------------|
B|-----------------------------------------------------------|
G|-----------------------------------------------------------|
D|--7--------8-----------------------------------------------|
A|--7--------7-----------------------------------------------|
E|--5--------6-----------------------------------------------|

Verse:

e|-------------------------------------------------------|
B|----------8------------8------------8------------------|
G|----------7------------7------------7------------------|  x4 times
D|----------6------------6------------6------------------|  for verse
A|----------7------------7------------7--------------4---|   then:
E|--3--0-------0--3--0------0--3--0------0--3--5--3------|
[ Tab from: http://www.guitartabs.cc/tabs/s/stone_temple_pilots/where_the_river_flows_tab.html ]
Chorus:
     				on last time
e|--------------------------|-----------------------------------------|
B|--------------------------|-----------------------------------------|
G|--------------------------|-----------------------------------------|
D|--5/7-xx-7/5-xx-5/7-xx-7--|---7-5-5---------------------------------|x4
A|--5/7-xx-7/5-xx-5/7-xx-7--|---7-5-5---------------------------------|
E|--3/5-xx-5/3-xx-3/5-xx-5--|---5-3-3---------------------------------|

e|---------------------------------------------------------------|
B|----------8-------------8-------------8------------------------|
G|----------7-------------7-------------7------------------------|
D|----------6-------------6-------------6------------------------|
A|----------7-------------7-------------7--------------4---------|
E|--3--0-------0--3--0-------0--3--0-------0--3--5--3------------|

e|---------------|
B|---------------|
G|---------------|
D|---7----xxx-8--| end chorus
A|---7----xxx-7--|
E|---5----xxx-6--|


Repeat verse and chorus then after the end of the 2nd chorus

chorus2:
e|-----------------------------------------------------------------|
B|--5/7----5/7----5/7---7\5-----------5/7----5/7----5/7---8-5------|
G|--5/7----5/7----5/7---7\5-----------5/7----5/7----5/7---7-5------|
D|--5/7-xx-5/7-xx-5/7-x-7\5-(7)(6)(5)-5/7-xx-5/7-xx-5/7-x-7-5------|x2
A|-----------------------------------------------------------------|
E|-----------------------------------------------------------------|

resolve:

e|-----------------------------------------------------------------|
B|----------8-------------8-----------8----------------------------|
G|----------7-------------7-----------7----------------------------|
D|----------6-------------6-----------6----------------------------|
A|----------7-------------7-----------7--------------4-------------|
E|--3--0-------0-3--0-------0-3--0-------0--3--5--3-----0----------|

repeat verse and chorus AGAIN!~!!
until
e|------------------------------|
B|------------------------------|
G|------------------------------|
D|------------------------------|
A|---/7-----\3-----/7-----\3----|
E|------------------------------|

then finish the song, there are little diddles that the guitarist does but hey, this is 
basic stuff, figure the little things out for yourself.

| /  slide up
| \  slide down
| h  hammer-on
| p  pull-off
| ~  vibrato
| +  harmonic
| x  Mute note
=======================================================================
brought to you in part by Doherty highschool were i spent 6th period over 2 days writing this tab.
Comments