Stone Temple Pilots - Where The River Flows Chords & Tabs

 

Where The River Flows Chords & Tabs

Stone Temple Pilots Chords & Tabs

Version: 1 Type: Bass Tab 0 ratings
1 star 2 stars 3 stars 4 stars 5 stars
comments

Where The River Flows Bass Tab

   
			     Where The River Flows - Stone Temple Pilots
From the Album: Core

Tabbed By : Brad Wassink
Tuning: Standard (GDAE)

VERSE (Yeah, I could hide in the calm)

G|-----------------------------------------|
D|-----------------------------------------|
A|-----(7)-----(7)------(7)--------5-------|
E|-3-0------3-0-----3-0------3-5-3----(0)--|
                                     |^^^|	
					Only Play this note before the pause		
Fill 1

G|-----------|
D|-----------|
A|-----------|
E|-5---56--|

Chorus (Nowhere to run to nowhere to hide)

G|-----------------------------------| 2X ON THE LAST CHORUS THERE'S A SCALE 
D|-----------------------------------|	 HERE THAT I DON'T HAVE YET
A|-----------------------------------|
E|3h5-5-533h5-55-3h5-5-53-3h55-55--|
[ Tab from: http://www.guitartabs.cc/tabs/s/stone_temple_pilots/where_the_river_flows_btab.html ]
						    Fill 1
G|-------------------------------------|-----------|
D|-------------------------------------|-----------|
A|-----(7)------(7)------(7)--------5--|-----------|
E|3-0------3-0------3-0------3-5-3----|--5----56--|

Bridge (I Wanna be as big as a mountain)
						    Fill 1
G|---------------------------------|2x  |-----------|
D|---------------------------------|    |-----------|
A|3-555-33-555-3-3-555-3-3-5553---|    |-----------|
E|---------------------------------|    |--5----56--|

Interlude (If I was stronger)

G|---------------------------------------------|
D|---------------------------------------------|
A|-7--7/3-3/7-7/3323-3/7/10/3-3/7-7/3---|
E|---------------------------------------------|

Order:

Verse riff 2x
Fill 1
Verse 4x
Chorus
Verse 4x
Chorus 
Bridge 
Verse riff 1x
PAUSE
Verse 4x
Chorus 
Bridge
Interlude w/ Fill 1 2x
Verse 4x (solo)
Chorus
Bridge without Fill 1 (repeat and fade)


| /  slide up
| \  slide down
| h  hammer-on
| p  pull-off
| ~  vibrato
| +  harmonic
| x  Mute note
===============================================================================
Comments