Stone Temple Pilots - Unglued Chords & Tabs

 

Unglued Chords & Tabs

Stone Temple Pilots Chords & Tabs

Version: 2 Type: Tab 0 ratings
1 star 2 stars 3 stars 4 stars 5 stars
comments

Unglued Tab

mcwa@ix.netcom.com (Michael C. Welch)
UNGLUED BY STONE TEMPLE PILOTS


album"Purple". My Name is Aaron. Email me at mcwa@ix.netcom.com
and tell how awesome I am for posting this tab. Here It Is! 

OPENING RIFF

e|---------------------------------------------------
B|---------------------------------------------------
G|---------------------------------------------------
D|---------------------------------------------------
A|--------------5\7\5-------------5\7\5--------------
E|--0-0-0-0-0-0-------0-0-0-0-0-0--------------------

VERSE RIFF
[ Tab from: http://www.guitartabs.cc/tabs/s/stone_temple_pilots/unglued_tab_ver_2.html ]
e|---------------------------------------------------
B|---------------------------------------------------
G|---------------------------------------------------
D|---------------------------------------------------
A|---------------------------------------------------
E|--0-0-0-0-0-----0-0-0-0-0-----0-0-0-0-0---0-0-0-0-0
  
CHORUS

e|---------------------------------------------------------------------
B|---------------------------------------------------------------------
G|--9-9--5-5-5-------5-5-5--9-9--5-5-5-----------7-7-7-7--6-6-6-6--5---
D|--9-9--5-5-5--7-7--5-5-5--9-9--5-5-5--7-7-7-7--7-7-7-7--6-6-6-6--5--- 
A|--7-7--3-3-3--7-7--3-3-3--7-7--3-3-3--7-7-7-7--5-5-5-5--4-4-4-4--3--- 
E|--------------5-5---------------------5-5-5-5------------------------

THAT'S IT! EXCEPT FOR THE SOLO, WHICH I'LL POST LATER. SEE YA!
Comments