Stone Temple Pilots - Tumble In The Rough Chords & Tabs

 

Tumble In The Rough Chords & Tabs

Stone Temple Pilots Chords & Tabs

Version: 3 Type: Tab 0 ratings
1 star 2 stars 3 stars 4 stars 5 stars
comments

Tumble In The Rough Tab

SONG NAME Tumble In The Rough - Band Name Stone Temple Pilots
-------------------------------------------------------------------------------
Tabbed by: Sadscaryguy
Email: electricaliens@aol.com

Tuning: Standard

e|-----------------------------------------------------------------------------------|
B|-----------------------------------------------------------------------------------|
G|----------0-------0------0----0----------------------------------------------------|
D|---------2--------3-----2---3-------2-----3----------------------------------------|
A|-----------------4--------4----4-----4---------------------------------------------|
E|-----------------------------------------------------------------------------------|
[ Tab from: http://www.guitartabs.cc/tabs/s/stone_temple_pilots/tumble_in_the_rough_tab_ver_3.html ]
e|---------------------------------------------------------------------------------|
B|---------------------------------------------------------------------------------|
G|---------------------------------------------------------------------------------|
D|---------------------------------------------------------------------------------|
A|--------------------6--------8---------6-----8-----------------------------------|
E|------------4-------------6--------4------6--------------------------------------|

e|----------------------------------6-----------------------------------------------|
B|----------------------------6------6----------------------------------------------|
G|--------------------------4---------6---------------------------------------------|
D|---------------------5----5---5-----7-------7-------------------------------------|
A|----------------3------3--------3------5---5--------------------------------------|
E|----------------------------------------------------------------------------------|

e|---------------------------------------------------------------------------------|
B|---------------------------------------------------------------------------------|
G|---------------------------------------------------------------------------------|
D|---------------------------------------------------------------------------------|
A|-----------------------6-------8-----6------8------------------------------------|
E|-------------------4-----------6-------4----6------------------------------------|
Comments