Stone Temple Pilots - Tumble In The Rough Chords & Tabs

 

Tumble In The Rough Chords & Tabs

Stone Temple Pilots Chords & Tabs

Version: 1 Type: Tab 0 ratings
1 star 2 stars 3 stars 4 stars 5 stars
comments

Tumble In The Rough Tab

   
Tumble in the Rough
Stone Temple Pilots
Tiny Music…..

Riff One(Intro…Break)
D: 5                                            (play repeatedly until you count to 8 and…in your head)
A: 5
E: 3

Riff Two(verse)
G:----------------3-3-3--------------------------------------------------------------------------------
D:-5-5-5---------3-3-3-------------------------------------------------------------------------------
A:-5-5-5---------1-1-1-------------------------------------------------------------------------------
E:-3-3-3--x----------------xxxxxxxxxxxxxx-------------------------------------------------------

Riff Three(Chorus)
G:3----5-------              (Play each one 16 times repeatedly)
D:3----5--------
A:1----3--------
E:---------------
[ Tab from: http://www.guitartabs.cc/tabs/s/stone_temple_pilots/tumble_in_the_rough_tab.html ]
Riff Four( Bridge before solo)
G:                                       5 5 5 5
D:5 5 5 5  3 3 3 3 3 3 3 3   5 5 5 5
A:5 5 5 5  3 3 3 3 3 3 3 3   3 3 3 3
E:3 3 3 3  1 1 1 1 0 0 0 0 


Solo:

E:-------------------------------------------|-----------------------------------------------------------
B:----5-----------6------8-------6----5----|---3---------------------3---------------3---3-----------
G:----7^----------8^----10^----8^---7^--|----5^---5--3—5-3-5-5-^--3--5--3- 5^-------3-------

E:-----------------3-------6-------12---------12-------14---------15-------
B:------3------6-----6/8----8/11-----11/13----13/15----15/17----------
G:-3----6-------------------------------------------------------------------

Honestly…you wont play the very end of the last line because youll have to go back to riff 1…..
My name is craig….email me at aeroragecb@aol.com    give me some feedback…peace
Comments