Stone Temple Pilots - Sour Girl Chords & Tabs

 

Sour Girl Chords & Tabs

Stone Temple Pilots Chords & Tabs

Version: 6 Type: Tab 0 ratings
1 star 2 stars 3 stars 4 stars 5 stars
comments

Sour Girl Tab

A couple of versions of this are floating around but I haven't seen any that I
think are right - so here's mine. I got this from watching some footage of them
playing it live acoustically - with my acoustic in hand and pausing the picture.
I also play this acoustically in my band and it sounds bang on - so in my
opinion - this is it. Please note that no timing or strumming patterns are
implied here. Anyone who is half way proficient on the guitar should be able
to get that from listening to the CD.

Intro
e|----------------------------------------1-3-|
B|----------------------------------------1-3-|
G|----------------------------------------2-4-|
D|--5-5-5-5-5-5-----5-5-5-5-5-------------3-5-|
A|--5-7-8-8-8-7-7-7-5-6-6-6-5-5-5-5-5-5-5-3-5-|
E|--------------8-8-----------7-7-8-8-8-7-1-3-|
[ Tab from: http://www.guitartabs.cc/tabs/s/stone_temple_pilots/sour_girl_tab_ver_6.html ]
Main Verse
e|----5--0----0--|----1--3--3--|
B|----3--6----6--|----1--3--3--|
G|----0--5----5--|----2--4--5--|
D|----4--0----0--|----3--5--5--|
A|-0-----X-------|----3--5--5--|
E|-------6-6----|-1-1--3--3--|

Chorus
e|--0--0--|-0--3--|-1--1--|-3--7--10---|
B|--6--6--|-1--0--|-1--1--|-0--0---0---|
G|--5--5--|-0--0--|-3--2--|-0--0---0---|
D|--0--7--|-2--0--|-3--3--|-0--0---0---|
A|--X--0--|-3--2--|-1--3--|-X--X---X---|
E|--6-----|----3--|----1--|-3--7--10---|

The quiet part in the middle after the intro is repeated
e|----------------|---------------|-----------|------|
B|----------------|---------------|-----------|------|
G|----------5-----|---------5-----|-----------|-2--4-|
D|--------5-------|-------5-------|-------5---|-3--5-|
A|--5-7-8-----7---|---5-6-----5---|-----5-----|-3--5-|
E|--------------8-|-8-----------7-|-7-8-----7-|-1--3-|

Try it.
Comments