Stone Temple Pilots - Sour Girl Chords & Tabs

 

Sour Girl Chords & Tabs

Stone Temple Pilots Chords & Tabs

Version: 4 Type: Tab 0 ratings
1 star 2 stars 3 stars 4 stars 5 stars
comments

Sour Girl Tab

   
name: Nate DOgg

artist: Stone Temple Pilots

SongTitle: Sour Girl

Tabs: #----------------------------------PLEASE 
NOTE--------------------------------#
#This file is the author's own work and represents their interpretation 
of the#
#song. You may only use this file for private study, scholarship, or 
research.#
#-----------------------------------------------------------------------------#




    SOUR GIRL
  
    performed by STONE TEMPLE PILOTS (No.4)

INTRO 

        
e-----------------------------------------------------------
b-----------------------------------------------------------
G-----------------------------------------------------------
D---0--2--3--3--3--2-----0--1--1--1--0----------------------
A---------------------3-----------------2--2--3--3--3--2----
E-----------------------------------------------------------
   

e-----------------------------------------------------------
b--------------------------Repeat Intro 2x------------------
G-----------------------------------------------------------
D---3--3--3--5--5--5----------------------------------------
A---3--3--3--5--5--5----------------------------------------
E---1--1--1--3--3--3----------------------------------------
   

VERSE                 
e-----------------------------------------------------------
b-----------------------------------------------------------
G---7--7-7---7---5---5--5---5-------------------------------
D---7--7-7---7---5---5--5---5------3--3--3---5--5--5--5-----
A---5--5-5---5---3---3--3---3------3--3--3---5--5--5--5-----
E----------------------------------1--1--1---3--0--3--0-----

   She turned a-way, what was she lookin at?


e-----------------------------------------------------------
b-----------------------------------------------------------
G---7--7-7---7---5---5--5---5-------------------------------
D---7--7-7---7---5---5--5---5------3--3--3---5--5--5--5-----
A---5--5-5---5---3---3--3---3------3--3--3---5--5--5--5-----
E----------------------------------1--1--1---3--0--3--0-----

[ Tab from: http://www.guitartabs.cc/tabs/s/stone_temple_pilots/sour_girl_tab_ver_4.html ]
   She was   a  sour girl the day that she met me.

e-----------------------------------------------------------
b-----------------------------------------------------------
G---7--7-7---7---5---5--5---5-------------------------------
D---7--7-7---7---5---5--5---5------3--3--3---5--5--5--5-----
A---5--5-5---5---3---3--3---3------3--3--3---5--5--5--5-----
E----------------------------------1--1--1---3--0--3--0-----

   Hey!         What are you lookin at?

e-----------------------------------------------------------
b-----------------------------------------------------------
G---7--7-7---7---5---5--5---5-------------------------------
D---7--7-7---7---5---5--5---5------3--3--3---5--5--5--5-----
A---5--5-5---5---3---3--3---3------3--3--3---5--5--5--5-----
E----------------------------------1--1--1---3--0--3--0-----

   She was a    sour girl the day that she left me.

CHORUS:

Bb           F    C
What would you doooooo 
C                        G        F           Bb
What would you do if I followed you? 
Bb                       F    C      G
What would you do if I follow? 

VERSE
Don't turn away, what are you looking at? 
He was so happy on the day that he met her 
Say, what are you looking at? 
I was a superman but looks are deceiving 
The rollercoaster ride's a lonely one
I'd pay a ransom note to stop it from steaming 
Hey! what are you looking at? 
She was a teenage girl when she met me... 


-CHORUS-

The girl got reasons, they all got reasons


VERSE
Hey! what are you looking at? 
She was a happy girl the day that she left me 
She was a happy girl the day that she left me 
She was a sour girl the day that she met me 
The day that she left me 


Chords used:

        E A D G B E
Bb      X X 3 3 3 1
F       X X 3 2 1 1
C       X 3 2 0 1 0
G       3 2 0 0 3 3



Note: Feel free to change this and make other versions. I didnít see a 
tab on the net so I took my best shot at it.

Tabbed by NATE DOGG (natcarm@yahoo.com)

Comments