Stone Temple Pilots - Sour Girl Chords & Tabs

 

Sour Girl Chords & Tabs

Stone Temple Pilots Chords & Tabs

Version: 1 Type: Tab 0 ratings
1 star 2 stars 3 stars 4 stars 5 stars
comments

Sour Girl Tab

   
Stone Temple Pilots - Sour Girl	
Album - No.4

by Joseph Aguirre
mexicano3@hotmail.com

Okay, I saw them play this on Leno, they did an acoustic version of the song
which is played different than the electric version.  The only real difference
is the plays some of the notes multiple times instead of once like on the cd.
If someone really wants me to tab out the acoustic version of this just email me.

* Intro *
e--------------------------------------------------------------
b--------------------------------------------------------------
g----------5--------------5------------------------------------
d--------5--------------5------------------5-------------------
a--5-7-8-----7------5-6-----7------------5------3--3-3/5-5-5---
E--------------8--8-----------7--7-7h8-8-----8--1--1-1/3-3-3---
[ Tab from: http://www.guitartabs.cc/tabs/s/stone_temple_pilots/sour_girl_tab.html ]
* Verse *
   
   G          ?                 F             G
e-------------------------------1-------------3-----------------------
b--3----------6-----------------1-------------3-----------------------
g--0----------7-----------------2-------------4-----------------------
d--4----------8-----------------3-------------5-----------------------
a--5----------5-----------------3-------------5-----------------------
E-------------------------------1-------------3-----------------------
 "She turned away what was she looking at..." 

* Chorus *

e--1-------3---|-----------------------------------------------
b--1-------3---|---3--------------------------------------------
g--2-------4---|---0--------------------------------------------
d--3-------5---|---4-------------------------------------------
a--3-------5---|---5--------------------------------------------
E--1-------3---|-----------------------------------------------
                  "followed you...." 


The part where he's like "Girl's got her reason, they all got reasons..."
Just use the intro but leave out some parts, you'll be able to tell if you
compare the two which notes are left out, it isn't that hard.

Comments, Suggestions, or to just tell me I'm wrong:
Joseph Aguirre
mexicano3@hotmail.com


Comments