Stone Temple Pilots - Sour Girl Chords & Tabs

 

Sour Girl Chords & Tabs

Stone Temple Pilots Chords & Tabs

Version: 1 Type: Bass Tab 0 ratings
1 star 2 stars 3 stars 4 stars 5 stars
comments

Sour Girl Bass Tab

"Sour Girl"
Stone Temple Pilots - No. 4

bass tab
transcribed by Joe M. (cuatro01@att.net)

I made a few minor corrections to the chorus.
The rest is the same as the original tab that I made.

INTRO
G:--------------------------------------------------------------
D:--------------------------------------------------------------
A:------7--8--8--8--7--------5--6--6--6--5----------------------
E:--10-----------------8--8-----------------7--7--7--8--8--8--7-

G:------------------------------------------------------------------
D:------------------------------------------------------------------
A:----------------------------7--8--8--7--------5--6--6--5----------
E:--1---1--1 / 3--3---3---10--------------8--8--------------7--7--7-

G:--------------------------------------------
D:--------------------------------------------
A:---------------8---8--8------10---10---10\--
E:--8--8--8--7-------------10-----------------


VERSE
G:-------------------------------------------------------
D:--4--4--4----------------------------------------------
A:-----------5--5--5--3--3-----------------3--2----------
E:--------------------------1--1--1--3--3--------3--3--5-

G:-------------------------------------------------------------------
D:--------------------------------------------4--4--4----------------
A:--3--5--5--5--3--3-----------------3--2--------------5--5--5--3--3-
E:--------------------1--1--1--3--3--------3-------------------------

G:-------------------------------------------------------------
D:-------------------------------------------------------------
A:-----------------3--2--------------------------------8--8--8-
E:--1--1--1--3--3--------3--5--5--5--6--6--6--6--8/10----------

G:-------------------------------------------------------------------------
D:-------------------------------------------------------------------------
A:------/10--10--10--10-10--9--9--9--5--5--5--3--3-----------------3--2----
E:--10----------------------------------------------1--1--1--3--3--------3-

G:------------------------------------------------------------------------
D:-------------------------------------------------4--4--4----------------
A:--------3--5--5--5--3--3----------------3--2--------------5--5--5--3--3-
E:--3--5--------------------1--1--1--3--3-------3-------------------------

G:-------------------------------------------------------------------------------
D:-------------------------------------------------------------------------------
A:-----------------3--2-----------------------------8--8--8------/10--10--10--10-
E:--1--1--1--3--3--------3--5--5--5--6--6--6--8/10-----------10------------------

CHORUS 1
G:-----------------------------------------------------------------------------
D:-----------------------7--7--7--7------------------------------------10------
A:-----------------5--8--------------8--8--8--8--10------------10/(12)------12-
E:--6--6--6--6--6------------------------------------8--8--8-------------8-----

G:----------------------------------------------------------------
D:-----------------------------------------------------7--7--7--7-
A:--10--10--10--7--7--8--8--10-------------------5--8-------------
E:------------------------------8--6--6--6--6--6------------------

G:------------------------------------------------------------------
D:------------------------------------------------------------------
A:--8--8--8--8--9--10-------------------------------10------10--10--
E:-----------------------10---10--10--3---6/(10)10------10----------
[ Tab from: http://www.guitartabs.cc/tabs/s/stone_temple_pilots/sour_girl_btab.html ]
BRIDGE (between chorus 1 and verse 2)
G:----------------------------------------------------------------------
D:----------------------------------------------------------------------
A:--9--9--9--5--5--5--3--3-----------------3--2--------3--5--5--5--3--3-
E:--------------------------1--1--1--3--3--------3--3-------------------

G:-------------------------
D:-------------------------
A:-----------------3--2----
E:--1--1--1--3--3--------3-

CHORUS 2 & 3 - leave off the last two notes (10A) for chorus 2
G:-----------------------------------------------------------------------------
D:-----------------------7--7--7--7------------------------------------10------
A:-----------------5--8--------------8--8--8--8--10------------10/(12)------12-
E:--6--6--6--6--6------------------------------------8--8--8-------------8-----

G:----------------------------------------------------------------
D:-----------------------------------------------------7--7--7--7-
A:--10--10--10--7--7--8--8--10-------------------5--8-------------
E:------------------------------8--6--6--6--6--6------------------

G:-----------------------------------------------------------------
D:-----------------------------------------------------------------
A:--8--8--8--8--9--10-------------------------------10------10--10-
E:-----------------------10---10--10--3---6/(10)10------10---------

G:-------------------------------------------------------------------
D:-----------------------7--7--7--7----------------------------------
A:-----------------5--8--------------8--8--8--8--9--10---10---10-----
E:--6--6--6--6--6-------------------------------------------------10-

G:------------------------------------------------------------------------
D:-------------------------------------------------7--7--7--7-------------
A:-------------------------------------------5--8--------------8--8--8--8-
E:--3--3-3-3--2--3--3-3-3--5--6--6--6--6--6-------------------------------

G:-----------------------------------------------------
D:-----------------------------------------------------
A:--9--10-------------------------------10------10--10-
E:-----------10---10--10--3---6/(10)10------10---------

BRIDGE (between chorus 2 and chorus 3)
G:--------------------------------------------------------------
D:--------------------------------------------------------------
A:------7--8--8--8--7--------5--6--6--6--5----------------------
E:--10-----------------8--8-----------------7--7--7--8--8--8--7-

G:------------------------------------------------------------------------
D:------------------------------------------------------------------------
A:----------------------------7--8--8--8--7------------5--6--6--6--5------
E:--1---1--1 / 3--3---3---10-----------------8------8-----------------7---

G:---------------------------------------------------
D:---------------------------------------------------
A:----------------------8---8--8------10---10---10\--
E:----7--7--8--8--8--7------------10-----------------

OUTRO (after chorus 3, repeat & fade out)
G:----------------------------------------------------------------------
D:----------------------------------------------------------------------
A:--9--9--9--5--5--5--3--3-----------------3--2--------3--5--5--5--3--3-
E:--------------------------1--1--1--3--3--------3--3-------------------

G:-------------------------------------------------------------------------
D:--------------------------4--4--4----------------------------------------
A:-----------------3--2--------------5--5--5--3--3-----------------3--2----
E:--1--1--1--3--3--------3--------------------------1--1--1--3--3--------3-

G:--------------------------------------------------------------
D:--------------------------------------------------------------
A:-----------------------------8--8--8------/10--10--10--10-10--
E:--5--5--5--6--6--6--6--8/10-----------10----------------------

Comments