Stone Temple Pilots - Sin Chords & Tabs

 

Sin Chords & Tabs

Stone Temple Pilots Chords & Tabs

Version: 4 Type: Tab 0 ratings
1 star 2 stars 3 stars 4 stars 5 stars
comments

Sin Tab

#----------------------------------PLEASE NOTE--------------------------------#
#This file is the author's own work and represents their interpretation of the#
#song. You may only use this file for private study, scholarship, or research.#
#-----------------------------------------------------------------------------#
#-- File created with Instab - http://www.pconline.com/~smcarey/instab.html --#
#-----------------------------------------------------------------------------#

Author/Artist: Stone Temple Pilots
Title: Sin
Album: Core
-----0--------------------0---------------------------------------------------
---0---0---0------------0---0---0---------------------------------------------
-3-------3---3-1b---3-3-------3---3-1b----------------------------------------
-2------------------3-3-------------------------------------------------------
-2------------------2-2-------------------------------------------------------
-0------------------0-0-------------------------------------------------------
 beginning do it a few times                                                  

-0-0-0-0-----0-0-0-0-----0-0--------------------------------------------------
-0-0-0-0-----0-0-0-0-----0-0--------------------------------------------------
-3-3-3-3-----1-1-1-1-----1-1--------------------------------------------------
-2-2-2-2-----2-2-2-2-----2-2--------------------------------------------------
-2-2-2-2-----2-2-2-2-3-3-2-2--------------------------------------------------
-0-0-0-0-0-0-0-0-0-0-----0-0-0-0----------------------------------------------
 this is the verse                                                            

------------------------------------------------------------------------------
------------------------------------------------------------------------------
-----0-0---------0---------------0---------0----------------------------------
---0-----0---------0---0-------0---0---0-0---0-------0------------------------
-2---------4-4b------4---4-4-0-------2---------2/4-4--------------------------
-3---------5-----------------1-------3---------3/5----------------------------
 then do this a few times when "time to go..." plays                          

-17-14----17-14----17-14----17-17-------17-14-14-17-14-14-17-14----17-14-14---
-------15-------15-------15-------15-15-------------------------15------------
------------------------------------------------------------------------------
------------------------------------------------------------------------------
------------------------------------------------------------------------------
------------------------------------------------------------------------------
                                                                              

----17-14-14----17-14-14----17----17-14----17-14----17-14----17-17------------
-15----------15----------15----15-------15-------15-------15-------15-15------
------------------------------------------------------------------------------
------------------------------------------------------------------------------
------------------------------------------------------------------------------
------------------------------------------------------------------------------
                                                                              
[ Tab from: http://www.guitartabs.cc/tabs/s/stone_temple_pilots/sin_tab_ver_4.html ]
-17-14-14-17-14-14-17-14----17-14-14----17------------------------------------
-------------------------15----------15----15---------------------------------
------------------------------------------------------------------------------
------------------------------------------------------------------------------
------------------------------------------------------------------------------
------------------------------------------------------------------------------
  this is how the breakdown goes.  it is repetitve so repeat as neccessary.   

----------------------0b------------------------------------------------------
-6---6-5b-------4-4---2b------------------------------------------------------
-5-5---5b-------4-4---2b------------------------------------------------------
-3-----3b-3b----2-2---0b------------------------------------------------------
-5-----5b----5--4-4-x-2b------------------------------------------------------
------------------------------------------------------------------------------
  end of break down, then repeat intro and verse as neccessary.               

-3---------------------------3-----------3-3-3-3-3-3-3-3-3-3-3----------------
-3---------------------------3---3-3-----0-2-0-2-3-3-3-3-3-3-3----------------
-0---------------------------0---0-0-0---0-0-0-0-0-0-0-0-0-0-0----------------
-1---------------------------3-3-3-3-0----------------------------------------
------------------------------------------------------------------------------
------------------------------------------------------------------------------
 finger pick this chord then             repeat the whole thing as needed     

------------------------------------------------------------------------------
------------------------------------------------------------------------------
-------------------------------------------------------11-----14b--12b--12b---
------------------------------------------9-----12---------12-----------------
-5b-5b-5b-5b-5b----0---------------10--------10-----14------------------------
----------------5b---3b------12-12-----12-------------------------------------
                                                                              

------------------------14-12r11-15--14b-------------------------15-14--------
-11h-12r11-\9/12r-11h12--------------------15b-------15b------15-------15-----
-------------------------------------------------14b-----14b------------------
------------------------------------------------------------------------------
------------------------------------------------------------------------------
------------------------------------------------------------------------------
                                                                              

------------------------------------------------------------------------------
-------15b----12------------------10-12h13/15--13-11-10-9---------------------
-14\12-------------------9h-11h12---------------------------------------------
-----------------14b----------------------------------------------------------
------------------------------------------------------------------------------
------------------------------------------------------------------------------
                                                                              

------------------------------------------------------------------------------
-14---14-12-10\9/---10--------------------------------------------------------
------------------------------------------------------------------------------
------------------------------------------------------------------------------
------------------------------------------------------------------------------
------------------------------------------------------------------------------
 that is the solo and just use the other parts to finish.  enjoy.             

Comments