Stone Temple Pilots - Sex Type Thing Chords & Tabs

 

Sex Type Thing Chords & Tabs

Stone Temple Pilots Chords & Tabs

Version: 3 Type: Tab 0 ratings
1 star 2 stars 3 stars 4 stars 5 stars
comments

Sex Type Thing Tab

Band: Stone Temple Pilots
Song: Sex Type Thing
Album: Core
Tabbed by Barret Murphy

This is just the intro and the outro i haven't figured out the whole song just yet
[ Tab from: http://www.guitartabs.cc/tabs/s/stone_temple_pilots/sex_type_thing_tab_ver_3.html ]
E|-0-7--0-6--0-5--0-3--3-5-5-0---------------------------------------------|
A|---9----8----7----5--5-7-7-----------------------------------------------|
D|-------------------------------------------------------------------------|
G|-------------------------------------------------------------------------|
B|-------------------------------------------------------------------------|
e|-------------------------------------------------------------------------|

Then at the end he plays this
E|-0-7-7-0-6---------------------------------------------------------------|
A|---9-9---8---------------------------------------------------------------|
D|-------------------------------------------------------------------------|
G|-------------------------------------------------------------------------|
B|-------------------------------------------------------------------------|
e|-------------------------------------------------------------------------|

That's all i have for now
Comments