Stone Temple Pilots - Seven Caged Tigers Chords & Tabs

 

Seven Caged Tigers Chords & Tabs

Stone Temple Pilots Chords & Tabs

Version: 2 Type: Bass Tab 0 ratings
1 star 2 stars 3 stars 4 stars 5 stars
comments

Seven Caged Tigers Bass Tab

Song:  Seven Caged Tigers
Artist: Stone Temple Pilots
Album:  Tiny Music...
Tabbed By: Mike Witte

Verse 1  	 Not on 1x
G---------------|---0---1-0---|------------------------------|
D--------0--2-2-|-2---2-----2-|-----------------------4-5-7--|
A------2--------|-------------|-3535-5--3-3--2--2-2----------|
E-3-3-----------|-------------|------------------------------|
				^ Don't on 2x
G--------------------------12h14p13-|
D-2-2--------------------2----------|  Repeat, then go to Chorus
A-----2-2-3--32------2-2------------|
E---------------3-3-----------------|

Chorus    3x	   First 2	    Third
G--------------3-|3------3-3-3---3-|-3-3---5-3----------|
D--1-1--1-1-1/---|---1h3------33---|-----3-----5-3-1-0--|
A-1----1---------|-----------------|--------------------|
E----------------|-----------------|--------------------|
[ Tab from: http://www.guitartabs.cc/tabs/s/stone_temple_pilots/seven_caged_tigers_btab_ver_2.html ]
G---------------------3-3-3----33---4-4-4-4-4\-|
D---1-1---1-1-1---1h3-------33----3------------|  First time, back to
A-1-----1-------1------------------------------|  Verse.  Second, to
E----------------------------------------------|	 Solo.

Solo
G-----------------------------2-0-----------------------|
D-------0-2-2-------4-------------4-2-0---------------2-|
A-----2-------2-3-4----2-2-3------------3-2-0-----2-2---|
E-3-3-----------------------------------------3-3-------|

G---------------------------------------------------------|  Back to
D-------4-------------------------------------------------|  Chorus.
A-2-3-4----2-2-----------------2-2-22-5-5-55-5-5-5---55---|
E--------------3-3-3-3-3-3-33----------------------5----5-|

ORDER

Verse
Chorus
Verse
Chorus
Solo
Chorus

There's a few places where I couldn't hear the bass(end of solo), so just do a
little improv where I don't have anything written.
Comments