Stone Temple Pilots - Ride The Cliche Chords & Tabs

 

Ride The Cliche Chords & Tabs

Stone Temple Pilots Chords & Tabs

Version: 1 Type: Tab 0 ratings
1 star 2 stars 3 stars 4 stars 5 stars
comments

Ride The Cliche Tab

   
----------------------------------PLEASE NOTE---------------------------------#
#This file is the author's own work and represents their interpretation of the #
#song. You may only use this file for private study, scholarship, or research. #
#------------------------------------------------------------------------------#

From j.p.juneau@arcadis.be Sun Mar  9 21:32:09 1997
Date: Sun, 9 Mar 1997 23:35:03 +0100
From: "J.P.Juneau" 
Subject: [ISO-8859-1] tab/stone temple pilots/ride the cliché

    [The following text is in the "ISO-8859-1" character set]
    [Your display is set for the "US-ASCII" character set]
    [Some characters may be displayed incorrectly]


RIDE THE CLICHE
STONE TEMPLE PILOTS

Here's a great song from a more than exellent band. It's off
their third album: "Tiny music...Songs from the vatican gift
shop", released march 26th 1996.

It's in standard tuning
The main riff must be played very fluidly, which can be kind
of tricky, but thats nothing practice won't fix...

So here it is.

Intro: G
e:-----------------------------------------------------
B:-----------------------------------------------------
G:---4-4---x-4-4---x-4-4---x-4-4---4-4--4----4-4-4-----
D:---5-5---x-5-5---x-5-5---x-5-5---5-5--5----5-5-5-----
A:---5-5---x-5-5---x-5-5---x-5-5---5-5--5----5-5-5-----
E:---3-3-----3-3-----3-3-----3-3---3-3--3----3-3-3-----


Main riff:
e:-----------------------------------------------------
B:-----------------------------------------------------
G:-----------------------------------------------------
D:----------2------------------------------------------
A:-0--4--5-----5--4--5--5--4p2p0----------0---0--------
E:--------------------------------3----3---------------



e:-----------------------------------------------------
B:-----------------------------------------------------
G:-----------------------------------------------------
D:-----------------------------------------------------
A:-------5----2--5----2--5----2--5--5----2--5----------
E:-0--0--3----0--3----0--3----0--3--3----0--3----------


Verse: ( main riff x4)

[ Tab from: http://www.guitartabs.cc/tabs/s/stone_temple_pilots/ride_the_cliche_tab.html ]
Chorus: A                                 A/D??
e:------5---x--5----5---------------5--x---5---x--5----5-----
B:------5---x--5----5---------------5--x---7---x--7----7-----
G:------6---x--6----6---------------6--x---7---x--7----7-----
D:------7---x--7----7---------------7--x---7---x--7----7-----
A:------5---x--5----5---------------5--x---5---x--5----5-----
E:------5---x--5----5---------------5--x---5---x--5----5-----

               Hold me closer let me be          (Hold me
closer 
                
                A  
e:------5--5----5---x--5----5-------------5---------------
B:------7--7----5---x--5----5-------------5---------------
G:------7--7----6---x--6----6-------------7---------------
D:------7--7----7---x--7----7-------------6---------------
A:------5--5----5---x--5----5-------------5---------------
E:------5--5----5---x--5----5-------------5---------------

  let me  be)          hold me closer let   me go
 
        G  
e:--------------------------------------------------------
B:--------------------------------------------------------
G:------4--4----4------4--4----4-------4--4--4------------
D:------5--5----5------5--5----5-------5--5--5------------   
 (X2)
A:------5--5----3------5--5----5-------5--5--5------------   

E:------3--3----3------3--3----3-------3--3--3------------

                    away ...

    
  


    A                                         F
e:--5---x--5----5-----------------5-----------1--1---1--1--1--
-1--1--1-
B:--5---x--5----5-----------------5-----------1--1---1--1--1--
-1--1--1-
G:--6---x--6----6-----------------6-----------2--2---2--2--2--
-2--2--2-
D:--7---x--7----7-----------------7-----------3--3---3--3--3--
-3--3--3-
A:--5---x--5----5-----------------5-----------3--3---3--3--3--
-3--3--3-
E:--5---x--5----5-----------------5-----------1--1---1--1--1--
-1--1--1-

           trip the witch and ride the shame



During the solo, play the main riff four times. As for a tab
of it, i'll post it as soon as i figure it out.


Outro:
e:-----1--1---1----1--1--1----1--1--1----1--1--1----1--1--1---
---
B:-----1--1---1----1--1--1----1--1--1----1--1--1----1--1--1---
---
G:-----2--2---2----2--2--2----2--2--2----2--2--2----2--2--2---
---
D:-----3--3---3----3--3--3----3--3--3----3--3--3----3--3--3---
---
A:-----3--3---3----3--3--3----3--3--3----3--3--3----3--3--3---
---
E:-----1--1---1----1--1--1----1--1--1----1--1--1----1--1--1---
---

                                                        
always.Well there you have it. I'll be posting more stp songs soon,
whenever i get the time to transpose them from my head to the
computer.

Have fun, drink milk.

J.P.
Comments