Stone Temple Pilots - Pretty Penny Chords & Tabs

 

Pretty Penny Chords & Tabs

Stone Temple Pilots Chords & Tabs

Version: 1 Type: Tab 0 ratings
1 star 2 stars 3 stars 4 stars 5 stars
comments

Pretty Penny Tab

   
#----------------------------------PLEASE NOTE---------------------------------#
#This file is the author's own work and represents their interpretation of the #
#song. You may only use this file for private study, scholarship, or research. #
#------------------------------------------------------------------------------#
From: Kevin Gardner 

Pretty Penny
by Stone Temple Pilots
arranged for computer tab by Kevin Gardner code@wam.umd.edu
transcribed by: Kenn Chipkin, John McCrea, and Matt Scharfglass

Here it is, much to everyoneUs shock Dean plays this
song, and in fact the entire album in standard turning, sorry 
no open turings on TPurpleU not even a drop high-D for RBig EmptyS.

Intro and verse, (Rhave you seen...S):

guitar #1  |----------3-|-3---3-3-------|
           |----------2-|-2---2-2-------|
           |-4--4-2---0-|-0---0-0--x--x-|
           |-2--2-2---0-|-0---0-0-------|
           |----------0-|-0---0-0-------|
           |------------|---------------|
           ==============================
guitar #2  |------------|---------------|
           |------------|---------------|
           |-4--4-2-----|---------------|
           |-2--2-2-x-4-|-5---5-5--x-x--|
           |--------x-4-|-5---5-5--x-x--|
           |-0--0-0-x-2-|-3---3-3--x-x--|

chorus, (Rgone.. when you wake...S):
[ Tab from: http://www.guitartabs.cc/tabs/s/stone_temple_pilots/pretty_penny_tab.html ]
guitar #1  |-------0-----|-------0-----|-------0-----|
           |-------5-----|-------5-----|-------5-----|
           |-8-8-8-8-8-8-|-8-8-8-8-8-8-|-8-8-8-8-8-8-|
           |-7-7-7---7-7-|-7-7-7---7-7-|-7-7-7---7-7-|
           |-0-0-0---0-0-|-0-0-0---0-0-|-0-0-0---0-0-|
           |-------------|-------------|-------------|
           ==============================
guitar #2  |-0-----0-----|-0-----0-----|-0-----0-0---|
           |-4-5B--4-----|-2-----0-----|-0-2h--2-4---|
           |-------------|-------------|-------------|
           |-------------|-------------|-------------|
           |-------------|-------------|-------------|
           |-------------|-------------|-------------|

intrumental section:
guitar #1  |-0---|                             |-0---|
           |-11--|                             |-0---|
           |-11--| strum this and then this -> |-11--|
           |-9---|                             |-9---|
           |-11--|                             |-11--|
           |-0---|                             |-0---|
           ==============================
guitar #2  |-----0---0--|
           |-----0---0--|
           |-----4---4--|
           |-2---2---2--|
           |-2----------|
           |-0----------|

B = bent note
h = hammered on legatto

I belive that sending this transcription through e-mail has added some mysterious R's and S's pleaseignorethem


=================================================================================================================.



From: kermit@news.winternet.com (Fred Gotfredson)

                  "Pretty Penny" by Stone Temple Pilots
                        Chords by Fred Gotfredson
 
Allright, people were wondering about this song, and it is rather easy.
 
* Both Guitar 1 and 2 are accoustic.
* The ending chord on both guitars is an open E (as in the 1st Interlude for
  guitar 2 shown below)
 

 
---------------
Verse- Guitar 1
---------------
 
*note* the music below is one measure.
 
   E5            F#5 A5
 
e|------------------------------------|
B|------------------------------------|
G|------------------------------------|
D|-2-----2--2--X--4--5-----5--5--X--X-|
Comments