Stone Temple Pilots - Plush Chords & Tabs

 

Plush Chords & Tabs

Stone Temple Pilots Chords & Tabs

Version: 6 Type: Tab 0 ratings
1 star 2 stars 3 stars 4 stars 5 stars
comments

Plush Tab

   
-----------------------------------------------------------------------------
			     Plush - Stone Temple Pilots
-----------------------------------------------------------------------------
Tabbed by: Will
Email: guitarist820@yahoo.com

Tuning- Standard (E A D G B E)

This is the REAL way to play Plush, in full. This took forever to do so I hope it helps.

Intro (I've seen this tabbed out w/out the root notes in it. It sounds much
better this way.)

e|-3-3----3----3-3----3---3-3-3-3-3----3----3-3----3-------------------------
B|-3-3----2----1-1----3---0-1-2h3-3----2----1-1----3-------------------------
G|-0-0----3----2-2----0---0-0-0-0-0----3----2-2----0-------------------------
D|-0-0----x----0-0----0---------0-0----x----0-0----0-------------------------
A|-x-x----1----3-3----x---------x-x----1----3-3----x-------------------------
E|-3-3----------------3---------3-3----------------3-------------------------

Verse( The timing is weird on this part so you'll have to listen to it to get it right.)

e|-3----3----1----0----3----1----3----2----1----0----3----1------------------
B|-3----2----1----1----3----1----3----3----1----1----3----1------------------
G|-0----3----2----0----3----2----4----2----2----0----3----2------------------
D|-0----0----3----2----5----3----5----4----3----2----5----3------------------
A|-2----0----3----3----6----3----5----5----3----3----6----3------------------
E|-3----2*---1----0----3----1----3----2----1----0----3----1------------------
         *w/ thumb

Chorus (And I feel it) 4 times  

e|-2----0----0----0----------------------------------------------------------
B|-3----3----3----3----------------------------------------------------------
G|-2----0----0----0----------------------------------------------------------
D|-0----0----0----0----------------------------------------------------------
A|-0----3----2----3----------------------------------------------------------
E|---------------------------------------------------------------------------

Bridge (4 times)

e|-3----1--------------------------------------------------------------------
B|-3----1--------------------------------------------------------------------
G|-3----2--------------------------------------------------------------------
D|-5----3--------------------------------------------------------------------
A|-6----3--------------------------------------------------------------------
E|-3----1--------------------------------------------------------------------

Intro

e|-3-3----3----3-3----3---3-3-3-3-3----3----3-3----3-------------------------
B|-3-3----2----1-1----3---0-1-2h3-3----2----1-1----3-------------------------
G|-0-0----3----2-2----0---0-0-0-0-0----3----2-2----0-------------------------
D|-0-0----x----0-0----0---------0-0----x----0-0----0-------------------------
A|-x-x----1----3-3----x---------x-x----1----3-3----x-------------------------
E|-3-3----------------3---------3-3----------------3-------------------------

Verse

e|-3----3----1----0----3----1----3----2----1----0----3----1------------------
B|-3----2----1----1----3----1----3----3----1----1----3----1------------------
G|-0----3----2----0----3----2----4----2----2----0----3----2------------------
D|-0----0----3----2----5----3----5----4----3----2----5----3------------------
A|-2----0----3----3----6----3----5----5----3----3----6----3------------------
E|-3----2*---1----0----3----1----3----2----1----0----3----1------------------
         *w/ thumb

Chorus (And I feel it) 4 times  
[ Tab from: http://www.guitartabs.cc/tabs/s/stone_temple_pilots/plush_tab_ver_6.html ]
e|-2----0----0----0----------------------------------------------------------
B|-3----3----3----3----------------------------------------------------------
G|-2----0----0----0----------------------------------------------------------
D|-0----0----0----0----------------------------------------------------------
A|-0----3----2----3----------------------------------------------------------
E|---------------------------------------------------------------------------

Bridge (4 times)

e|-3----1--------------------------------------------------------------------
B|-3----1--------------------------------------------------------------------
G|-3----2--------------------------------------------------------------------
D|-5----3--------------------------------------------------------------------
A|-6----3--------------------------------------------------------------------
E|-3----1--------------------------------------------------------------------

Bridge 2 (4 Times)

e|-3----1----0----3----3-----------------------------------------------------
B|-3----1----1----3----2-----------------------------------------------------
G|-0----2----0----3----3-----------------------------------------------------
D|-0----3----2----5----0-----------------------------------------------------
A|-2----3----3----6----------------------------------------------------------
E|-3----1----0----3----------------------------------------------------------

Intro (2 Times)

e|-3-3----3----3-3----3---3-3-3-3-3----3----3-3----3-------------------------
B|-3-3----2----1-1----3---0-1-2h3-3----2----1-1----3-------------------------
G|-0-0----3----2-2----0---0-0-0-0-0----3----2-2----0-------------------------
D|-0-0----x----0-0----0---------0-0----x----0-0----0-------------------------
A|-x-x----1----3-3----x---------x-x----1----3-3----x-------------------------
E|-3-3----------------3---------3-3----------------3-------------------------

Bridge (4 times)

e|-3----1--------------------------------------------------------------------
B|-3----1--------------------------------------------------------------------
G|-3----2--------------------------------------------------------------------
D|-5----3--------------------------------------------------------------------
A|-6----3--------------------------------------------------------------------
E|-3----1-------------------------------------------------------------------- 
Bridge 2 (4 Times)

e|-3----1----0----3----3-----------------------------------------------------
B|-3----1----1----3----2-----------------------------------------------------
G|-0----2----0----3----3-----------------------------------------------------
D|-0----3----2----5----0-----------------------------------------------------
A|-2----3----3----6----------------------------------------------------------
E|-3----1----0----3----------------------------------------------------------


Intro (2 Times)

e|-3-3----3----3-3----3---3-3-3-3-3----3----3-3----3-------------------------
B|-3-3----2----1-1----3---0-1-2h3-3----2----1-1----3-------------------------
G|-0-0----3----2-2----0---0-0-0-0-0----3----2-2----0-------------------------
D|-0-0----x----0-0----0---------0-0----x----0-0----0-------------------------
A|-x-x----1----3-3----x---------x-x----1----3-3----x-------------------------
E|-3-3----------------3---------3-3----------------3-------------------------

There it is, in full. This is an awesome song to play b/c it is somewhat tough
but sounds awesome. STP rocks! Enjoy, and rock on... Will

| /  slide up
| \  slide down
| h  hammer-on
| p  pull-off
| ~  vibrato
| +  harmonic
| x  Mute note
===============================================================================
Comments