Stone Temple Pilots - Plush Chords & Tabs

 

Plush Chords & Tabs

Stone Temple Pilots Chords & Tabs

Version: 2 Type: Tab 0 ratings
1 star 2 stars 3 stars 4 stars 5 stars
comments

Plush Tab

   
#----------------------------------PLEASE NOTE---------------------------------#
#This file is the author's own work and represents their interpretation of the #
#song. You may only use this file for private study, scholarship, or research. #
#------------------------------------------------------------------------------#

Artist: Stone Temple Pilots
Song: Plush
Tabbed by: John Leadman



Intro and exit (play 4 times on intro and 4 times on exit):
 
E ||---3---3---3---3---3---3---3---3---3---------------------|
B ||---3---3---2---1---1---0---0---1---2---------------------|
G ||---0---0---3---2---2---0---------------------------------|
D ||---0---0---0---0---0---0---------------------------------|
A ||---------------------------------------------------------|
E ||---------------------------------------------------------|

Chords:

     E A D G B E
GM   3 2 0 0 3 3 
F#   2 0 0 2 3 x
F    1 3 3 2 1 1
C1   3 3 2 0 1 x    
G?   3 6 5 3 3 3

D    x x 0 2 3 x 
C2   x 3 x 0 3 x
B    x 2 x 0 3 x  

fill in (/ = slide up; \ = slide down):

E ||--------------------------------|
B ||--------------------------------|
G ||--------------------------------|
D ||---7/8---8---8---8\7---7---7----|  
A ||---5/6---6---6---6\5---5---5----|
E ||--------------------------------|

==============================================================================================================

PLUSH BY STP
transcribed by jkep@wam.umd.edu

INTRO:
e|--3--3---x--3----3--x--3--3---3---3-3-3-3-3---|
B|--3--3---x--3----3--x--2--2---0---0-0-1-2-3---|
G|--0--0---x--2----2--x--1--1---0---0-0-0-0-0---|
D|--0--0---x--3----3--x--2--2-------------------|
A|--2--2---x----------x-------------------------|
E|--3--3---x----------x-------------------------|


e|--3-3---------------1--1------------0-0-|
B|--3-3------3-3------1--1------------1-1-|
G|--0-0------2-2------2--2------------0-0-|
D|--0-0------0-0------3--3------------2-2-|
A|--2-2------x-x------3--3------------3-3-|
E|--3-3------2-2------1--1----------------|

         So where you going to (repeat)
         So would you even (pre chorus)
e|--3-3-x---3-----3///5-----5---|
B|--3-3-x---3-----3///5-----5---|
G|--3-3-x---3-----3///5-----5---|
D|--5-5-x---5-----5///7-----7---|
A|--6-6-x---6-----6///8-----8---|
E|------x-----------------------|

    Care?           .. 

e|--2------------------|
B|--3-----3----3----3--|
G|--2-----0----0----0--|  repeat 4x's
D|--0-----2----0----2--|
A|--------3----2----3--|
E|---------------------|

         (intro to 2nd verse)
e|---3-3-----------3-3-3---------------1--1--|
B|---3-3-----------3-3-3---------------1--1--|
G|---3-3-----------3-3-3---------------2--2--|
D|---5-5-----------5-5-5---------------3--3--|
A|---6-6-----------6-6-6---------------3--3--|
E|-------------------------------------1--1--|

  
e|---------------------------------------------------------|
B|---------------------------------------------------------|
G|---------------------------------------------------------|
D|--------------------------------------------------8---7--|
A|-5-5-5-5-5---5/3-3-3-3-3--------3-3-3-3-3-3---3---6---5--|
E|-3-3-3-3-3---3/1-1-1-1-1--------1p0-0-0-0-0---0----------|

(then listen to the cd and put it all together)

________  ____/\/    
|  _____|    ___  |  |  \/\
|  |__ ____ / __| |  | __
|   __||  | \ \   |  |/  \
|  |   |  | __\ \ |   /\  |
|__|   |__| |___/ |__|  |_|

==================================================================================================================

From: ssettles@ee.tamu.edu (Steve Settles)

Plush by Pearl Jam
 
Intro and exit (play 4 times on intro and 4 times on exit):
 
E ||---3---3---3---3---3---3---3---3---3---------------------|
B ||---3---3---2---1---1---0---0---1---2---------------------|
G ||---0---0---3---2---2---0---------------------------------|
D ||---0---0---0---0---0---0---------------------------------|
A ||---------------------------------------------------------|
E ||---------------------------------------------------------|

Chords:

     E A D G B E
GM   3 2 0 0 3 3 
F#   2 0 0 2 3 x
F    1 3 3 2 1 1
C1   3 3 2 0 1 x    
G?   3 6 5 3 3 3

D    x x 0 2 3 x 
C2   x 3 x 0 3 x
B    x 2 x 0 3 x  

fill in (/ = slide up; \ = slide down):
[ Tab from: http://www.guitartabs.cc/tabs/s/stone_temple_pilots/plush_tab_ver_2.html ]
E ||--------------------------------|
B ||--------------------------------|
G ||--------------------------------|
D ||---7/8---8---8---8\7---7---7----|  
A ||---5/6---6---6---6\5---5---5----|
E ||--------------------------------|

Enjoy!

Steve S.

==================================================================================================================


From: arao@quads.uchicago.edu (aditya rao)

It starts out (intro) with G, Eb7, C, G.  The first G is just basically
holding the 3rd fret on the two high strings.  The Eb7 is played on the G,B,E
strings on frets 3,2,3 respectively.

The verse starts with a G, then G/F#, then F, and the C. (They're all half
notes.)

Then over the part where he says "So where you going for tomorrw"
It's Bb to C. (They're both held for a measure each.)

The part where he says "And I feeeel it..." it's a little arpeggio where
he seems to walk down the bass line... DeLeo seems to do it alot.
and way (starting on the A string):

     g-      0       0     0
     d-    0   0   0     0
     a-  5       3     2     3 

  And I  Feel it....              (The "Feel" is on the same beat as the 
                                   beginning of the arpeggio)


 Those are the are the major parts, I don't remember the outro off hand.

=================================================================================================================

From: bigmax@tpgi.com.au (bigMAX)

Plush - Stone Temple Pilots
 
Intro and exit (play 4 times on intro and 4 times on exit):
 
E ||---3---3---3---3---3---3---3---3---3---------------------|
B ||---3---3---2---1---1---0---0---1---2---------------------|
G ||---0---0---3---2---2---0---------------------------------|
D ||---0---0---0---0---0---0---------------------------------|
A ||---------------------------------------------------------|
E ||---------------------------------------------------------|

Chords:

        E  A  D  G  B  E
G       3  2  0  0  3  3 
D/F#    2  x  0  2  3  x
F       x  3  3  5  6  x
C/E     x  x  2  5  5  x    
Eb      x  1  1  3  4  x

Eb2     6  6  8  8  x  x
F2      x  8  10 10 x  x
G2      x  5  5  7  8  x

D       x  x  0  2  3  x 
C2      x  3  x  0  3  0
B       x  2  x  0  3  x  

fill in (/ = slide up; \ = slide down):

E ||--------------------------------|
B ||--------------------------------|
G ||--------------------------------|
D ||---7/8---8---8---8\7---7---7----|  
A ||---5/6---6---6---6\5---5---5----|
E ||--------------------------------|

Enjoy!  From bigMAX.

=================================================================================================================

Artist: Stone Temple Pilots
Song: Plush (Accoustic)
Tabbed by: Michel Homan    homanmic@hotmail.com
Chords:
        E A D G B E
Gadd9   3 2 0 0 3 3 
D       X X 0 2 3 2
F       1 3 3 2 1 1
C       X 3 2 0 1 0 
Eb/D    X 6 5 3 3 3  or X X 1 3 3 3 
D       X X 0 2 3 2 
G       3 2 0 0 0 3

Intro and exit (play 4 times on intro and 4 times on exit)
 
E ||---3---3---3---3---3---3---3---3---3---------------------|
B ||---3---3---2---1---1---0---0---1---2---------------------|
G ||---0---0---3---2---2---0---0---0---0---------------------|
D ||---0---0---0---0---0---0---------------------------------|
A ||---------------------------------------------------------|
E ||---------------------------------------------------------|


Chorus:
E |--------------------------------|
B |--------------------------------|
G |--------------------------------|
D |--------------------------------|
A |-5—-5-—5--5--5—--3--3—-3—-3—-3—-|
E |-3—-3—-3—-3-—3---1--1--1--1--1--|
       Where the dogs can find her

E |--------------------------------|
B |--------------------------------|
G |--------------------------------|
D |----------------8--8--7--7------|
A |-3—-3—-3--3-—3--6—-6--5—-5------|
E |-0--0--0-—0-—0------------------|
        Got time, time to wait 'til 


E |--------------------------------|
B |--------------------------------|
G |--------------------------------|
D |--------------------------------|
A |-5—-5-—5--5--5—--3--3—-3—-3—-3—-|
E |-3—-3—-3—-3-—3---1--1--1--1--1--|
    tomorrow         To find her, 


E |--------------------------------|
B |--------------------------------|
G |--------------------------------|
D |----------------8--8--7--7------|
A |-3—-3—-3--3-—3--6—-6--5—-5------|
E |-0--0--0-—0-—0------------------|
     to find her,   to find her

Repeat intro  >>>
Comments