Stone Temple Pilots - Plush Chords & Tabs

 

Plush Chords & Tabs

Stone Temple Pilots Chords & Tabs

Version: 1 Type: Tab 14 ratings
1 star 2 stars 3 stars 4 stars 5 stars
comments

Plush Tab

   
Song: Plush
Artist: Stone Temple Pilots
Album: Core
Submitted by Brandon Williams 
e-mail: Bwillia1074@cs.com

I know that this is correct because it was in a magazine where Dean showed how to play it, BUT it was not complete so I helped you out with somethings.  

Riff 1:
  G5     G(Bb)   Am7(C6)  G         
|-3-3----3-------3-3------3------3-3-3-|
|-3-3----2-------1-1------0------0-1-2-|
|-0-0----3-------2-2------0------0-0-0-|
|--------------------------------------|
|--------------------------------------|
|--------------------------------------|

Riff 2:
  G          D/F#          F             C             Ebmaj7                   F
|-3--3----------2--2----------1--1----------0--0----------------------------------|
|-3--3---X-X----3--3---X-X----1--1---X-X----1--1---X-X-3--3--3---X-X-3-3--3---X---|
|-0--0---X-X-2--2--2---X-X----2--2---X-X-0--0--0---X-X-3--3--3---X-X-3-3--3---X-2-|
|-0--0---X-X-0--0--0---X-X-3--3--3---X-X-2--2--2---X-X-5--5--5---X-X-5-5--5---X-3-| T=thumb
|-2--2---X-X-----------X-X-3--3--3---X-X-3--3--3---X-X-6--6--6---X-X-6-6--6---X-3-|
|-3--3-------2--2--2-------1--1--1----------------------------------------------1-|
            T

Riff 3:
  Dsus2   Cadd2  G6/B    Cadd2
|-0-------0--0---0----0--0----0-|
|-3-------3--3---3----3--3----3-|
|-2-------0--0---0----0--0----0-|
|-0-----------------------------|
|---------3--3---2----2--3----3-|
|-------------------------------|

Riff 4:
[ Tab from: http://www.guitartabs.cc/tabs/s/stone_temple_pilots/plush_tab.html ]
Ebmaj7       F

Just repeat those two chords over and over for the chorus.  This part wasn't in the tab but I know that it is correct.


Riff 5:
|----------------------------------------------------------------------|
|----------------------------------------------------------------------|
|--------------------------X-------------------------------------------|
|--------------------------X---------------------7\8--8--8--8--7--7--7-|
|-5-5-5-5-5----5--3-3-3----X-3----3-3-3-3-3------5\6--6--6--6--5--5--5-|
|-3-3-3-3-3----3--1-1-1------1----0-0-0-0-0----------------------------|
|                                                                      |         
|      *  *  *      *   *                                              |                  
|----------------------------------------------------------------------|
|----------------------------------------------------------------------|
|--------7-----7------7---------------5---5-------------5-5h7-----5----|
|----7h9--9--9------9---9----5--7---5---5---5---------5-----------5----|
|-10-------10-----8----------8----7-----------7----6--------------5----|
|----------------------------------------------------------------------|
*Substitute Bb (8th fret) for each B note second time.


I don't feel like putting in the lyrics and song flow like I usually do because I'm going to be tabbing up some more songs soon.  Also, there's a fill in the song after the first chorus and before the second verse that is just a shortened version of Riff 1.  If you listen to it, you'll hear it.
Comments