Stone Temple Pilots - Plush Acoustic Chords & Tabs

 

Plush Acoustic Chords & Tabs

Stone Temple Pilots Chords & Tabs

Version: 1 Type: Tab 10 ratings
1 star 2 stars 3 stars 4 stars 5 stars
comments

Plush Acoustic Tab

The chords are the same as the version that is already
posted except that Scott Weiland plays this version on an
acoustic guitar 1 whole step down.  Any questions, Comments,
suggestions or corrections would be appreciated.  

Wannabeguitargod_justin@yahoo.com
thanx for the help Saverain

-|-3--3-----3---------------3--3-----3------3-3-3--|----|---------------------
-|-3--3-----2---------------1--1-----0------0-1-2--|----|---------------------
-|-0--0-----3---------------2--2-----0------0-0-0--|----|---------------------
-|-------------------------------------------------|-3x-|---------------------
-|-------------------------------------------------|----|---------------------
-|-------------------------------------------------|----|---------------------
   v  ^  m  v intro         v  ^  m  v      v ^ ^                             

-|-------------------------------------------------|----|---------------------
-|-------------------------------------------------|----|---------------------
-|-------------------------------------------------|----|---------------------
-|-------------------------------------------------|-3x-|---------------------
-|-5--------1--1-1--1---1-2-3--3------------2-3-4--|----|---------------------
-|-3--3---------------3--------------3--3-3--------|----|---------------------
bass    m    intro               m                                           

-|-3--3-----3---------------3--3-----3-------------|--------------------------
-|-3--3-----2---------------1--1-----0-------------|--------------------------
-|-0--0-----3---------------2--2-----0-------------|--------------------------
-|-------------------------------------------------|--------------------------
-|-------------------------------------------------|--------------------------
-|-------------------------------------------------|--------------------------
   v  ^  m  v intro end     v  ^  m  v       verse>                           

-|-3--3---------2--2---------1--1---------0--0--------------------------------
-|-3--3--x--x---3--3--x--x---1--1--x--x---1--1--------------------------------
-|-0--0--x--x-2-2--2--x--x---2--2--x--x-0-0--0--------------------------------
-|-0--0--x--x-0-0--0--x--x-3-3--3--x--x-2-2--2--------------------------------
-|-2--2--x--x-x-x--x--x--x-3-3--3--x--x-3-3--3--------------------------------
-|-3--3-------2-2--2-------1-1--1---------------------------------------------
   v  ^  v  vT^ v  ^  v  v ^ v  ^  v  v ^ v  ^  next staff                    

----------------------------------|----|--------------------------------------
-x-x-3--3--3--x--x-3-3--3--x------|----|--------------------------------------
-x-x-3--3--3--x--x-3-3--3--x-2----|----|--------------------------------------
-x-x-5--5--5--x--x-5-5--5--x-3----|-2x-|--------------------------------------
-x-x-6--6--6--x--x-6-6--6--x-3----|----|--------------------------------------
-----------------------------1----|----|--------------------------------------
v ^ ^  v  ^  v  v ^ v  ^  v ^   end of verse  interlude>                     

-|-0----0--0-0--0-0----0-|----|-----------------------------------------------
-|-3----3--3-3--3-3----3-|----|-----------------------------------------------
-|-2----0--0-0--0-0----0-|----|-----------------------------------------------
-|-0----x--x-x--x-x----x-|-4x-|-----------------------------------------------
-|------3--3-2--2-3----3-|----|-----------------------------------------------
-|-----------------------|----|-----------------------------------------------
   v    v  v ^  ^ v    v       to pre-chorus>                                 

-|----------------------------------------------------------------------------
-|-3--3--x-x-x-x-3-3--3--x-x-x-x-1-1--1---------------------------------------
-|-3--3--x-x-x-x-3-3--3--x-x-x-x-2-2--2---------------------------------------
-|-5--5----------5-5--5----------3-3--3---------------------------------------
-|-6--6----------6-6--6----------3-3--3---------------------------------------
-|-------------------------------1-1--1---------------------------------------
   v  ^  v ^ v ^ ^ v  ^  v ^ v ^ ^ v  ^  next staff                           
[ Tab from: http://www.guitartabs.cc/tabs/s/stone_temple_pilots/plush_acoustic_tab.html ]
-------------------------|----------------------------------------------------
-x-x-x-x-1-1--1--x-x-x-x-|----------------------------------------------------
-x-x-x-x-2-2--2--x-x-x-x-|----------------------------------------------------
-x-x-x-x-3-3--3--x-x-x-x-|----------------------------------------------------
-x-x-x-x-3-3--3--x-x-x-x-|----------------------------------------------------
---------1-1--1----------|----------------------------------------------------
v ^ v ^ ^ v  ^  v ^ v ^   first part to second part>                         

-|----------------------------------------------------------------------------
-|-3-3--3-x-x-x-x-3-3--3--x-x-x-x-1-1--1--------------------------------------
-|-3-3--3-x-x-x-x-3-3--3--x-x-x-x-2-2--2--------------------------------------
-|-5-5--5---------5-5--5----------3-3--3--------------------------------------
-|-6-6--6---------6-6--6----------3-3--3--------------------------------------
-|--------------------------------1-1--1--------------------------------------
   ^ v  ^ v ^ v ^ continue rythm          next staff                          

------------------------|----|------|---------|-------------------------------
-x-x-x-x-1-1--1-x-x-x-x-|----|------|---------|-------------------------------
-x-x-x-x-2-2--2-x-x-x-x-|----|------|---------|-------------------------------
-x-x-x-x-3-3--3-x-x-x-x-|-2x-|------|---------|-------------------------------
-x-x-x-x-3-3--3-x-x-x-x-|----|------|---------|-------------------------------
---------1-1--1---------|----|------|---------|-------------------------------
           end of prechorus   intro  intro end                                

-|-----|---------|----------|-------------------------------------------------
-|-----|---------|----------|-------------------------------------------------
-|-----|---------|----------|-------------------------------------------------
-|-----|---------|----------|-------------------------------------------------
-|-----|---------|----------|-------------------------------------------------
-|-----|---------|----------|-------------------------------------------------
  verse interlude pre-chorus to chorus> G1 & G2                               

-|----------------------------------------------------------------|----|------
-|----------------------------------------------------------------|----|------
-|---------------------------x------------------------------------|----|------
-|---------------------------x-------------------7/8-8-8-8-7-7-7--|-3x-|------
-|-5-5-5-5-5-------5-3-3-3---x-3----3-3-3-3-3----5/6-6-6-6-5-5-5--|----|------
-|-3-3-3-3-3-------3-1-1-1-----1----0-0-0-0-0---------------------|----|------
   v ^ v ^ v    m  ^ v ^ ^   v ^    v ^ v ^ v    ^   ^ v ^ v ^ ^              

-|----------------------------------------------------------------|----|------
-|----------------------------------------------------------------|----|------
-|--------7--------7-----7--------------5---5----------55h7--5----|----|------
-|----7h9---9----9-----9---9---5--7---5---5---5------5-------5----|-3x-|------
-|-10---------10-----8---------8----7-----------7--6---------5----|----|------
-|----------------------------------------------------------------|----|------
     sub8for9 2nd&4th time   m v  ^ v ^ v ^ v ^ ^  v ^ v     ^                

-|----------------------------------------------------------------|-----------
-|----------------------------------------------------------------|-----------
-|---------------------------x------------------------------------|-----------
-|---------------------------x-------------------7/8-8-----7------|-----------
-|-5-5-5-5-5-------5-3-3-3---x-3----3-3-3-3-3----5/6-6-----5------|-----------
-|-3-3-3-3-3-------3-1-1-1-----1----0-0-0-0-0---------------------|-----------
  4th time G1   m                                ^   v     v                  

-|-----|---------|-----|----------|------|-----|---------|---------------|----
-|-----|---------|-----|----------|------|-----|---------|---------------|----
-|-----|---------|-----|----------|------|-----|---------|---------------|----
-|-----|---------|-----|----------|------|-----|---------|---------------|----
-|-----|---------|-----|----------|------|-----|---------|---------------|----
-|-----|---------|-----|----------|------|-----|---------|---------------|----
  intro intro end pause pre chorus chorus intro intro end vibrato v v v v  

 
Buy Posters at AllPosters.com! 
 
 
 
More... 
 
 
Choose from 100,000 posters!
Find your favorite posters in music, movies,fine art, sports, and photography categories. Check out these categories:
Movies

Fine Art

Music
 
 
 
[Close] 
 
 
undefined 
[Close] 
 
 
undefined 
 
  
Comments