Stone Temple Pilots - Piece Of Pie Chords & Tabs

 

Piece Of Pie Chords & Tabs

Stone Temple Pilots Chords & Tabs

Version: 2 Type: Bass Tab 0 ratings
1 star 2 stars 3 stars 4 stars 5 stars
comments

Piece Of Pie Bass Tab

   
Song: Piece Of Pie
Band: Stone Temple Pilots
Album: Core
tabbed by: Jason (sellycell@hotmail.com)

Dropped D tuning

Intro
G|----------------|
D|----------------|
A|----------------|
D|--5-3-0-2-3-5-0-|

Verse
G|--------------------------------|
D|--------------------------------|
A|--------------------------------|
D|--5-3-0-3-0-0-5-3-0-3-0-0-0-0-0-|

Pre-Chorus
G|----------------------------------------|
D|----------------------------------------|
A|----------------------------------------|
D|--5-3-0-2-3---5-3-0-2-3---5-3-0-2-3-2-0-|
[ Tab from: http://www.guitartabs.cc/tabs/s/stone_temple_pilots/piece_of_pie_btab_ver_2.html ]
Chorus
G|-------------------------------------------------|
D|-------------------------------------3-4-0-0-----|
A|---------3h5------0-2-3-2--------3h5---------3h5-|
D|--0--0-0------0-0----------5-3-0-----------------|

Bridge/Ending
G|-----------------------------------------------------------------|
D|-----------------------------------------------------------------|
A|-8-8-8-8-8-8-8-8-7-7-7-7-7-7-7-7-6-6-6-6-6-6-6-6-5-5-5-5-5-5-5-5-|
D|-----------------------------------------------------------------|

Bridge/Ending cont.
G|------------------------------|
D|------------------------------|
A|-1----1-1----1-1----1--3-3--5-|
D|----3------3------3---------0-|

Pretty straight forward. This is fairly accurate, maybe not exactly
what Deleo plays on the disc, but damn close. Listen to the song to
put everything together.
Comments